Spit It Out

Slipknot

B
234
X24442
C#
234
X46664
E
123
022100
F#
234
244322
G#
234
431114
Tom: G
Drop B tuning
B F# B E G# C#

#1t1##1t2#-----------------|-|-|-|----------|-------------------------------------------
-----------------|-|-|-|----------|-------------------------------------------
-----------------|-|-|-|----------|-------------------------------------------
-----------------|-|-|-|----------|-------------------------------------------
-1-0-----0----1-0|-|-|-|1-0----1--|-------------------------------------------
-1-0-/5--0-/5-1-0|-|-|-|1-0-/5-1--|-------------------------------------------#/1t2##/1t1#
 PM-    |-|  |---|x5    PM-|     only one gtr w/ flanger  INTRO               

#2t1##2t2#-------------------|----------------------------------------------------------
-------------------|----------------------------------------------------------
-----/5-----/5-----|----------------------------------------------------------
-----/3-----/3-----|----------------------------------------------------------
-1-0----1-0----1-0-|----------------------------------------------------------
-1-0----1-0----1-0-|----------------------------------------------------------#/2t2##/2t1#
 PM-|  |---|  |---| x6   both gtrs w/o flanger  VERSE                         

#3t1##3t2#---------------------------|--------------------------------------------------
---------------------------|--------------------------------------------------
---------------------------|--------------------------------------------------
---------------------------|--------------------------------------------------
-3-3-3--3-2--2-3--3-1--1-1-|--------------------------------------------------
-3-3-3--3-2--2-3--3-1--1-1-|--------------------------------------------------#/3t2##/3t1#
 CHORUS                   x5                                                  

#4t1##4t2#-------------------|----------------------------------------------------------
-------------------|----------------------------------------------------------
-------------------|----------------------------------------------------------
------6-------7br--|----------------------------------------------------------
--5-------5--------|----------------------------------------------------------
-------------------|----------------------------------------------------------#/4t2##/4t1#
 INTER gtr1       x8                                                          

#5t1##5t2#--11-11-11-----11-11-11----11--|---11-11-11-----11-11-11-----11|--------------
--10-10-10-----10-10-10----10--|---10-10-10-----10-10-10-----10|--------------
--8--8--8------8--8--8-----8---|---8--8--8------8--8--8------8-|--------------
-------------------------------|-------------------------------|--------------
-------------------------------|-------------------------------|--------------
-------------------------------|-------------------------------|--------------#/5t2##/5t1#
 gtr2 w/ left and right panning                              x2               

#6t1##6t2#-----------|--------------------------------|---------------------------------
-----------|--------------------------------|---------------------------------
-----------|--7-7-7-7--7-8--8-7--7-8---8-7--|---------------------------------
-----------|--x-x-x-x--x-x--x-x--x-x---x-x--|---------------------------------
-----------|--5-5-5-5--5-6--6-5--5-6---6-5--|---------------------------------
-----------|--------------------------------|---------------------------------#/6t2##/6t1#
 BRIDGE "Bout time i set this record.."part x4  gtr1                          

#7t1##7t2#-----------|--------------------------------|---------------------------------
-----------|--------------------------------|---------------------------------
-----------|--------------------------------|---------------------------------
-----------|--------------------------------|---------------------------------
-----------|-0-0-0--------------------------|---------------------------------
-----------|-0-0-0--------------------------|---------------------------------#/7t2##/7t1#
                                         x4     gtr2                          

#8t1##8t2#--------------------------------------|---------------------------------------
--------------------------------------|---------------------------------------
-14-14-14--14-15--15-14--14-15--15-14-|-19-19-19--19-20--20-19--19-20--20-19--
-x--x--x---x--x---x--x---x--x---x--x--|-x--x--x---x--x---x--x---x--x---x--x---
-12-12-12--12-13--13-12--12-13--13-12-|-17-17-17--17-18--18-17--17-18--18-17--
--------------------------------------|---------------------------------------#/8t2##/8t1#
 gtr1                                                                         

#9t1##9t2#--------------------------------------|---------------------------------------
--------------------------------------|---------------------------------------
--------------------------------------|---------------------------------------
--------------------------------------|---------------------------------------
--------------------------------------|---------------------------------------
-0--0--0---0--1---1--0---0--1---1--0--|-0--0--0---0--1---1--0---0--1---1--0---#/9t2##/9t1#
 gtr2                                                                         

#10t1##10t2#--------------------------------------|---------------------------------------
--------------------------------------|---------------------------------------
-19-19-19--19-20--20-19--19-20--20-19-|-*-*-*-*-*-*-*-*-*-*-*-*-*-*-*-*-*-*---
-x--x--x---x--x---x--x---x--x---x--x--|-x-x-x-x-x-x-x-x-x-x-x-x-x-x-x-x-x-x---
-17-17-17--17-18--18-17--17-18--18-17-|-^-^-^-^-^-^-^-^-^-^-^-^-^-^-^-^-^-^---
--------------------------------------|---------------------------------------#/10t2##/10t1#
 gtr1                                   *=21  ^=19                            

#11t1##11t2#--------------------------------------|---------------------------------------
--------------------------------------|---------------------------------------
--------------------------------------|---------------------------------------
--------------------------------------|---------------------------------------
-0--0--0---0--1---1--0---0--1---1--0--|-0--0--0---0--1---1--0---0--1---1--0---
-0--0--0---0--1---1--0---0--1---1--0--|-0--0--0---0--1---1--0---0--1---1--0---#/11t2##/11t1#
 gtr2       INTER2                                                            

#12t1##12t2#------------------------------------------------------------------------------
------------------------------------------------------------------------------
------------------------------------------------------------------------------
------------------------------------------------------------------------------
------------------------------------------------------------------------------
------------------------------------------------------------------------------#/12t2##/12t1#
 play gtr2's part above for F*** me!I'm all out of..." part then PM chorus    

#13t1##13t2#------------------------------------------------------------------------------
------------------------------------------------------------------------------
------------------------------------------------------------------------------
------------------------------------------------------------------------------
------------------------------------------------------------------------------
------------------------------------------------------------------------------#/13t2##/13t1#
 for outro  order:intro/verse/chorus/inter/verse/chorus/bridge/inter2/chorus/ 

#14t1##14t2#------------------------------------------------------------------------------
------------------------------------------------------------------------------
------------------------------------------------------------------------------
------------------------------------------------------------------------------
------------------------------------------------------------------------------
------------------------------------------------------------------------------#/14t2##/14t1#
Composição: Colaboração e revisão: Bruno BianchiGiácomo