Surfacing

Slipknot

B
234
X24442
C#
234
X46664
E
123
022100
F#
234
244322
G#
234
431114
Tom: G
Song   :  Surfacing 
Tuning:
1 = C#                        
2 = G#                  
3 = E           
4 = B                   
5 = F#                          
6 = B                           


#1t1#Mick: w/GX-700
#1t2#1|----------------| t = tap 17th fret
2|----------------| ^ = bend up 1 whole step when tapped.
3|--t17^-(03030)--| () = trill
4|----------------|
5|----------------|
6|----------------| Time: 0:01-0:34#/1t2##/1t1#

#2t1#James:   0:09-0:34
#2t2#1|----------------|
2|----------------|
3|----------------|
4|----------------|
5|--0-0-1-0--0-1--|
6|--0-0-1-0--0-1--|#/2t2##/2t1#

#3t1#Both:    0:35-0:44
#3t2#1|----------------|
2|----------------|
3|----------------|
4|----------------|
5|--0-0-1p0--0-1--|
6|--0-0-1p0--0-1--| James plays it a w/o the pull off here. You can play it either way.#/3t2##/3t1#

#4t1#Both:    0:44-0:53
#4t2#1|----------------|
2|----------------|
3|----------------|
4|----------------|
5|------1p0----1--|
6|--0-0-1p0--0-1--|
PM [---]    [-]#/4t2##/4t1#

#5t1#James:           Mick: W/GX-700
#5t2#1|------------|   1|-------|       NOTE: James | Bend 1/2 Step
2|------------|   2|-------|
3|--7-----8^--|   3|--17^--|
4|--x-----x---|   4|-------|
5|--5-----6^--|   5|-------|
6|------------|   6|-------|#/5t2##/5t1#

#6t1#Both:    1:11-1:20
#6t2#1|----------------|
2|----------------|
3|----------------|
4|----------------|
5|--0-0-1p0--0-1--|
6|--0-0-1p0--0-1--|#/6t2##/6t1#

#7t1#James:            Mick: W/GX-700   1:29
#7t2#1|------------|   1|-------|  1|-------| * = Pre-Bend and Release 1 whole step
2|------------|   2|-------|  2|-------|
3|--7-----8^--|   3|--17^--|  3|--17*--|
4|--x-----x---|   4|-------|  4|-------|
5|--5-----6^--|   5|-------|  5|-------|
6|------------|   6|-------|  6|-------|#/7t2##/7t1#

#8t1#Both:     1:38-1:47
#8t2#1|----------------|
2|----------------|
3|----------------|
4|----------------|
5|--0-0-1p0--0-1--|
6|--0-0-1p0--0-1--|#/8t2##/8t1#

#9t1#Both:    1:47-1:56
#9t2#1|----------------|
2|----------------|
3|----------------|
4|----------------|
5|------1p0----1--|
6|--0-0-1p0--0-1--|
PM [---]    [-]#/9t2##/9t1#

#10t1#Mick:          1:59
#10t2#1|-----------------| NOTE: James plays this on the album, but live its switched.
2|----7-7-7-7-7-7--|
3|----x-x-x-x-x-x--|
4|----4-4-4-4-4-4--|
5|-----------------|
6|-x/--------------|#/10t2##/10t1#

#11t1#James:                      1:58-2:00
#11t2#1|-----------------------------------|
2|-----------------------------------|
3|-----------------------------------|
4|-----------------------------------|
5|--------7-6-----------4-3----------|
6|--8-7-6-----8-7-6-4-3-----4-3-2-1--|#/11t2##/11t1#

#12t1#Both:                       2:01-2:10
#12t2#1|-----------------------------------|
2|-----------------------------------|
3|-----------------------------------|
4|--------9/8-----------6-5----------|
5|--8-7-6-7/6-8-7-6-4-3-4-3-4-3-2-1--|
6|--8-7-6-----8-7-6-4-3-----4-3-2-1--|#/12t2##/12t1#

#13t1#Both:                       2:10-2:20
#13t2#1|-----------------------------------|
2|-----------------------------------|
3|-----------------------------------|
4|--------9/8-----------6-5----------|
5|--8-7-6-7/6-8-7-6-4-3-4-3-4-3-2-1--|
6|--8-7-6-----8-7-6-4-3-----4-3-2-1--|
PM [-------------------------------]#/13t2##/13t1#

#14t1#James:      2:20-2:37
#14t2#1|-------------------|
2|-------------------|
3|----------3-2------|
4|----------1-0------|
5|--3-2-3-2-----3-2--|
6|--3-2-3-2-----3-2--|#/14t2##/14t1#

#15t1#Mick:       2:20-2:37
#15t2#1|-------------------|
2|-------------------|
3|------10-9---------|
4|------8--7---------|
5|--3-2-----9-8-3-2--|
6|--3-2-----9-8-3-2--|#/15t2##/15t1#

#16t1#James:   2:37-2:46                        2:47-2:55
#16t2#1|----------------|--------------------------------|
2|----------------|--------------------------------|
3|----------------|--------------------------------|
4|----------------|--------------------------------|
5|----------------|--------------------------------|
6|--0-0-1p0--0-1--|--0-0-1p0--0-1--0-0---h1p0h1/2--|#/16t2##/16t1#

#17t1#Mick:
#17t2#1|-------|-------------| These 2 bars have the same time as the above.
2|-------|-------------| Bend up 1 full step.
3|--17^--|--17--(17^)--|
4|-------|-------------|
5|-------|-------------|
6|-------|-------------|#/17t2##/17t1#

#18t1#Both:    2:56-3:12
#18t2#1|----------------|
2|----------------|
3|----------------|
4|----------------|
5|--0-0-1p0--0-1--|
6|--0-0-1p0--0-1--|#/18t2##/18t1#

#19t1#Both:  3:13-3:15
#19t2#1|--------------|
2|--------------|
3|--------------|
4|--------------|
5|--0-0-1-0-----|
6|--0-0-1-0-----|#/19t2##/19t1#

#20t1#Both:    3:16-3:38
#20t2#1|----------------|
2|----------------|
3|----------------|
4|----------------|
5|------1p0----1--|
6|--0-0-1p0--0-1--|
PM [---]    [-]#/20t2##/20t1#
Composição: Colaboração e revisão: Bruno BianchiGiácomo