The Blister Exists

Slipknot

Tom: G
Afinação: (Low to High) B F# B E G# C#

#1t1#Intro:
#1t2#|---------------------------------------------------------------------------
|---------------------------------------------------------------------------
|---------------------------------------------------------------------------
|-3-1-0-x-0-----------------------------------------------------------------
|-3-1-0-x-0-----------------------------------------------------------0-x-0-
|-3-1-0-x-0-12h13p12b-0-x-0-12h13p12b-0-x-0-12h13p12b-0-x-0-12h13p12b-0-x-0-#/1t2##/1t1#

#2t1##2t2#|-----------------------------------------------------------------
|-----------------------------------------------------------------
|-----------------------------------------------------------------
|-----------------------------------------------------------------
|-----------------------------------------------------------0-x-0-
|-12h13p12b-0-x-0-12h13p12b-0-x-0-12h13p12b-0-x-0-12h13p12b-0-x-0-#/2t2##/2t1#

#3t1##3t2#|-----------------------------------------------------------------
|-----------------------------------------------------------------
|-----------------------------------------------------------------
|-----------------------------------------------------------------
|-----------------------------------------------------------0-x-0-
|-12h13p12b-0-x-0-12h13p12b-0-x-0-12h13p12b-0-x-0-12h13p12b-0-x-0-#/3t2##/3t1#

#4t1##4t2#|-------------------------------------------------------------------|
|-------------------------------------------------------------------|
|-------------------------------------------------------------------|
|-------------------------------------------------------------------|
|-----------------------------------------------------------0-0-0-0-|
|-12h13p12b-0-x-0-12h13p12b-0-x-0-12h13p12b-0-x-0-12h13p12b-0-0-0-0-|#/4t2##/4t1#


"ONE, TWO, THREE!!!"

#5t1#Guitarra 1: (8x)
#5t2#|-----------------------|
|-----------------------|
|-----------------------|
|-0-x-0-1-1-1-1-1-1-1-1-|
|-0-x-0-1-1-1-1-1-1-1-1-|
|-0-x-0-1-1-1-1-1-1-1-1-|#/5t2##/5t1#



#6t1#Guitarra 2: (8x)
#6t2#|-----------------|
|-----------------|
|-----------------|
|-----------------|
|-0-x-0-----------|
|-0-x-0-12h13p12b-|#/6t2##/6t1#

"YEAH!!!"



#7t1#Guitarras 1 e 2: (8x)
#7t2#|-----------------------|
|-----------------------|
|-----------------------|
|-0-x-0-1-1-1-1-1-1-1-1-|
|-0-x-0-1-1-1-1-1-1-1-1-|
|-0-x-0-1-1-1-1-1-1-1-1-|#/7t2##/7t1#



"DROP IT!!!"



#8t1#Guitarras 1 e 2: (8x)
#8t2#|-------------|
|-------------|
|-------------|
|-0-x-0-2h3p2-|
|-0-x-0-2h3p2-|
|-0-x-0-2h3p2-|#/8t2##/8t1#



Verso:


"Bones in the water and dust in my lungs..."



Guitarra 1:



(Para os que preferirem, também pode-se usar os Hammer's e Pull Off's ao invés da palhetada alternada)



#9t1#T.P. (3x)
#9t2#|-------------------------------------------------------------------------------
|--------15--15-16----------------15--------------------12-14-15-14-12----------
|------------------15-13-12--------------------12-14-15----------------15-14-12-
|-13-12---------------------13-12-----12-13-15----------------------------------
|-------------------------------------------------------------------------------
|-------------------------------------------------------------------------------
   .  .  .                  .  .  .#/9t2##/9t1#



#10t1##10t2#|---------------------------------------|
|--------15--15-16----------------15b18-|
|------------------15-13-12-------------|
|-13-12---------------------13-12-------|
|---------------------------------------|
|---------------------------------------|
   .  .  .                   .  .   .#/10t2##/10t1#



#11t1#Guitarra 2: (8x)
#11t2#|-----------------------|
|-----------------------|
|-----------------------|
|-0-x-0-1-1-1-1-1-1-1-1-|
|-0-x-0-1-1-1-1-1-1-1-1-|
|-0-x-0-1-1-1-1-1-1-1-1-|#/11t2##/11t1#



"Can you feel this?"




#12t1#Guitarras 1 e 2: (8x)
#12t2#|-------------|
|-------------|
|-------------|
|-0-x-0-2h3p2-|
|-0-x-0-2h3p2-|
|-0-x-0-2h3p2-|#/12t2##/12t1#



"Blood on the paper and skin on my teeth..."



Guitarra 1:
T.P.
#13t1##13t2#|-------------------------------------------------------------------------------
|--------15--15-16----------------15--------------------12-14-15-14-12----------
|------------------15-13-12--------------------12-14-15----------------15-14-12-
|-13-12---------------------13-12-----12-13-15----------------------------------
|-------------------------------------------------------------------------------
|-------------------------------------------------------------------------------
   .  .  .                  .  .  .#/13t2##/13t1#



#14t1##14t2#|----------------------------------------|
|--------15--15-16----------------15b18-|
|------------------15-13-12--------------|
|-13-12---------------------13-12--------|
|----------------------------------------|
|----------------------------------------|
   .  .  .                   .  .   .#/14t2##/14t1#



#15t1#Guitarra 2: (2x)
#15t2#|-----------------------|
|-----------------------|
|-----------------------|
|-0-x-0-1-1-1-1-1-1-1-1-|
|-0-x-0-1-1-1-1-1-1-1-1-|
|-0-x-0-1-1-1-1-1-1-1-1-|#/15t2##/15t1#




#16t1#Guitarras 1 e 2: (8x)
#16t2#|-------------|
|-------------|
|-------------|
|-0-x-0-2h3p2-|
|-0-x-0-2h3p2-|
|-0-x-0-2h3p2-|#/16t2##/16t1#



Refrão:



"I am all, but what am I?"



#17t1#Guitarras 1 e 2: (8x)
#17t2#|--------------------------|
|--------------------------|
|--------------------------|
|-2-3-0--6-5-6-5-0-3-3-3-5-|
|-2-3-0--6-5-6-5-0-3-3-3-5-|
|-2-3-0--6-5-6-5-0-3-3-3-5-|#/17t2##/17t1#



Breakdown:



#18t1##18t2#|-----|
|-----|
|-----|
|-1-0-|
|-1-0-|
|-1-0-|#/18t2##/18t1#



#19t1##19t2#|-----------|
|-----------|
|-----------|
|-0~~~~~~~~-|
|-0~~~~~~~~-|
|-0~~~~~~~~-|#/19t2##/19t1#



Guitarra 1: (repete quantas vezes for necessário)
P.M.
#20t1##20t2#|--------------------------------------------|
|--------------------------------------------|
|--------------------------------------------|
|-1-0----0-0-0-0-0-0-0-0-0-0-0-0--0-0-1-0--4-|
|-1-0----0-0-0-0-0-0-0-0-0-0-0-0--0-0-1-0--4-|
|-1-0----0-0-0-0-0-0-0-0-0-0-0-0--0-0-1-0--4-|
         . . . . . . . . . . .#/20t2##/20t1#



Guitarra 2: (repete quantas vezes for necessário)
T.P.
#21t1##21t2#|-------------------------------------------------------------------------------
|--------15--15-16----------------15--------------------12-14-15-14-12----------
|------------------15-13-12--------------------12-14-15----------------15-14-12-
|-13-12---------------------13-12-----12-13-15----------------------------------
|-------------------------------------------------------------------------------
|-------------------------------------------------------------------------------
   .  .  .                  .  .  .#/21t2##/21t1#

#22t1##22t2#|----------------------------------------|
|--------15--15-16-----------------15b18-|
|------------------15-13-12--------------|
|-13-12---------------------13-12--------|
|----------------------------------------|
|----------------------------------------|
   .  .  .                   .  .   .#/22t2##/22t1#



#23t1#Guitarras 1 e 2: (8x)
#23t2#|-------------|
|-------------|
|-------------|
|-0-x-0-2h3p2-|
|-0-x-0-2h3p2-|
|-0-x-0-2h3p2-|#/23t2##/23t1#



Refrão:



#24t1#Guitarras 1 e 2: (16x)
#24t2#|--------------------------|
|--------------------------|
|--------------------------|
|-2-3-0--6-5-6-5-0-3-3-3-5-|
|-2-3-0--6-5-6-5-0-3-3-3-5-|
|-2-3-0--6-5-6-5-0-3-3-3-5-|#/24t2##/24t1#



Final



Guitarras 1 e 2:
P.M.
#25t1##25t2#|--------------------------------------------|
|--------------------------------------------|
|--------------------------------------------|
|-1-0----0-0-0-0-0-0-0-0-0-0-0-0--0-0-1-0--4-|
|-1-0----0-0-0-0-0-0-0-0-0-0-0-0--0-0-1-0--4-|
|-1-0----0-0-0-0-0-0-0-0-0-0-0-0--0-0-1-0--4-|
         . . . . . . . . . . .#/25t2##/25t1#



#26t1##26t2#|---------------|
|---------------|
|---------------|
|-1-0~~~~~~~~~~-|
|-1-0~~~~~~~~~~-|
|-1-0~~~~~~~~~~-|#/26t2##/26t1#

Composição: Colaboração e revisão: Vinicius BragaAndré boto