The Devil In I

Slipknot

Tom: G
Intro:

#1t1#Guitarra 1
#1t2#|-------------------------------------------------------------------------------------------|
|-------------------------------------------------------------------------------------------|
|-------------------------------------------------------------------------------------------|
|-----------------------------------------7h8p7h8-7~~~~~~-------------------------|
|-5~~~~~~-8---7~~~~~~-3---5~~~~~~~~~~~~~~-----------------8---5---|
|------------------------------------------------------------------------------------------|#/1t2##/1t1#

#2t1##2t2#|----------------------------------------------------------------------------|
|----------------------------------------------------------------------------|
|----------------------------------------------------------------------------|
|----------------------------------------------------------------------------|
|---5h7h8---7-----3---5---------------------5h7h8---7-----3---5----|
|----------------------------------------------------------------------------|#/2t2##/2t1#

Verso:

#3t1#As duas Guitarras
#3t2#|-----------------------------------------------------------------|
|-----------------------------------------------------------------|
|-----------------------------------------------------------------|
|-----------------------------------------------------------------|
|---------------------------------------------------5-------------|
|-100-0-0-100-0-0-100-0-0-300-200-100-0-0-100-0-0/6---6-0-1p0-1p0-|#/3t2##/3t1#

#4t1##4t2#|-------------------------------------------------------------------------|
|-------------------------------------------------------------------------|
|-------------------------------------------------------------------------|
|-------------------------------------------------------------------------|
|-------------------------------------------------------------------------|
|-100-0-0-100-0-0-100-0-0-300-200-100-0-0-100-0-0-1BU(3)(1)p0-1BU(3)(1)p0-|#/4t2##/4t1#

Refrão:

#5t1#As duas Guitarras
#5t2#|---------|------------------------------------------------------------------------------------------|
|---------|---------10-10-10-10-9~~~~~------------------10-10-10-10-9~~~~~--------|
|---------|------------------------------------------------------------------------------------------|
|---3-----|-0--------7--7--7--7-6~~~~~----3-----0--------7--7--7--7-6~~~~~----3-----|
|---3-----|-0-----------------------------3-----0-----------------------------3-------------------|
|-0-3-----|-0---------------------------0-3-----0---------------------------0-3-----------------|#/5t2##/5t1#

#6t1#Guitarra 1
#6t2#|------------------------------------------------------------------------------------|
|------------------------------------------------------------------------------------|
|------------------------------------------------------------------------------------|
|------------------------------------------------------------------------------------|
|-5-5-5-5-5-5-5-5-7-7-7-7-7-7-7-7-8-8-8-8-8-8-8-8-3-3-3-3-3-3-3-3-|
|------------------------------------------------------------------------------------|
|#/6t2##/6t1#
#7t1#|Guitarra 2
#7t2#|------------------------------------------------------------------------------------|
|------------------------------------------------------------------------------------|
|------------------------------------------------------------------------------------|
|-3-3-3-3-3-3-3-3-5-5-5-5-5-5-5-5-7-7-7-7-7-7-7-7-2-2-2-2-2-2-2-2-|
|------------------------------------------------------------------------------------|
|------------------------------------------------------------------------------------|#/7t2##/7t1#

As duas guitarras:

#8t1#1ª vez
#8t2#|-------------------------------------|
|-10-----------8--------------------|
|------------------------------------|
|--7-----------5--------------------|
|----------------------0-2-3-1-----|
|----------------------0-2-3-1-----|#/8t2##/8t1#

Guitarra 1
2ª vez
#9t1##9t2#|------------------------------------------------|
|------------------------------------------------|
|------------------------------------------------|
|-/7~~~~~~~~~~-5~~~~~~-------------|
|----------------------0-2-3-1----------------|
|----------------------0-2-3-1----------------|
|#/9t2##/9t1#
#10t1#|Guitarra 2
#10t2#|--------------------------------------------------|
|--------------------------------------------------|
|--------------------------------------------------|
|--------------------------------------------------|
|-/8~~~~~~~~~~-7~~~~~~-0-2-3-1-----|
|----------------------0-2-3-1-------------------|#/10t2##/10t1#

Verso:

#11t1#Guitarra 1 (Clean)
#11t2#|-------------------------------------------------------------------|
|---------6-------5-----------------------8-------6---------------|
|-------------------------------------------------------------------|
|-------------------------------------------------------------------|
|---------5-------3-----------------------7-------5---------------|
|-0-------------------------------0--------------------------------|#/11t2##/11t1#

#12t1##12t2#|-------------------------------------------------------------------|
|---------6-------5------------------------------------------------|
|-------------------------------------------------------------------|
|-------------------------------------------------------------------|
|---------5-------3------------------------------------------------|
|-0---------------------------5-5h7-----------5-----------0-1--|#/12t2##/12t1#

#13t1#Guitarra 2
#13t2#|--------------------------------------------------------------------|
|-15-15-15-15-15-15-15-15-15-15-15-15-15-15-15-15-|
|--------------------------------------------------------------------|
|--------------------------------------------------------------------|
|--------------------------------------------------------------------|
|--------------------------------------------------------------------|#/13t2##/13t1#

#14t1#Guitarra 1 (Clean)
#14t2#|---------5-------3-----------------------6-------5---------------|
|---------6-------5-----------------------8-------6---------------|
|-------------------------------------------------------------------|
|-------------------------------------------------------------------|
|---------5-------3-----------------------7-------5---------------|
|-0-------------------------------0--------------------------------|#/14t2##/14t1#

#15t1##15t2#|---------5-------3-------------------------------------------------|
|---------6-------5-------------------------------------------------|
|---------------------------------------------------------------------|
|---------------------------------------------------------------------|
|---------5-------3--------------------------------------------------|
|-0---------------------------5-5h7-----------5-----------0-1-----|#/15t2##/15t1#

(Refrão)

Ponte:

#16t1#As duas guitarras
#16t2#|-------------------------------------------------------------------------|
|-------------------------------------------------------------------------|
|-2-------9-------8---------5-----2-------9----------------------------|
|-0-------7-------6---------3-----0-------7----------------------------|
|-0-------7-------6---------3-----0-------7---------5------------------|
|-0-------7-------6-------0-3-----0-------7------/6---6-0-1p0-1p0-|#/16t2##/16t1#

#17t1##17t2#|-----------------------------------------------------------------------------|
|-----------------------------------------------------------------------------|
|-2-------9-------8---------5-----2-------9-------------------3-----------|
|-0-------7-------6---------3-----0-------7-------------------1-----------|
|-0-------7-------6---------3-----0-------7-------------------1-----------|
|-0-------7-------6-------0-3-----0-------7-------1BU(3)1p0-0-1-----|#/17t2##/17t1#

(Repete segundo verso)

(Refrão)

(Primeiro Verso)

Breakdown:

#18t1#Guitarra 1
#18t2#|--------------------------------------------------------------------------------|
|--------------------------------------------------------------------------------|
|--------------------------------------------------------------------------------|
|--------------------------------------------------------------------------------|
|-----------------5-5-5-5-5-5-5-5-3-3-3-3-3-3-3-3-3-3-3-3-3-3-3-3-|
|-0-0-0-0-0-0-0-0-----------------------------------------------------------|#/18t2##/18t1#

#19t1#|Guitarra 2
#19t2#|-------------------------------------------------------------------------------|
|-------------------------------------------------------------------------------|
|-------------------------------------------------------------------------------|
|-----------------3-3-3-3-3-3-3-3-2-2-2-2-2-2-2-2-2-2-2-2-2-2-2-2-|
|-------------------------------------------------------------------------------|
|-0-0-0-0-0-0-0-0----------------------------------------------------------|#/19t2##/19t1#

#20t1#Guitarra 1
#20t2#|-------------------------------------------------------------------------------|
|-------------------------------------------------------------------------------|
|-------------------------------------------------------------------------------|
|-------------------------------------------------------------------------------|
|-----------------7-7-7-7-7-7-7-7-5-5-5-5-5-5-5-5-5-5-5-5-5-5-5-5-|
|-0-0-0-0-0-0-0-0-----------------------------------------------------------|
|#/20t2##/20t1#
#21t1#|Guitarra 2
#21t2#|-------------------------------------------------------------------------------|
|-------------------------------------------------------------------------------|
|-------------------------------------------------------------------------------|
|-----------------5-5-5-5-5-5-5-5-3-3-3-3-3-3-3-3-3-3-3-3-3-3-3-3-|
|-------------------------------------------------------------------------------|
|-0-0-0-0-0-0-0-0----------------------------------------------------------|#/21t2##/21t1#

#22t1#Guitarra 1
#22t2#|-----------------------------------------------------------------------------|
|-----------------------------------------------------------------------------|
|-----------------------------------------------------------------------------|
|-----------------------------------------------------------------------------|
|-----------------5-5-5-5-5-5-5-5-3-3-3-3-3-3-3-3-3-3-3-3---------|
|-0-0-0-0-0-0-0-0-----------------------------------------5-5-5-5------|
|#/22t2##/22t1#
#23t1#|Guitarra 2
#23t2#|-----------------------------------------------------------------------------|
|-----------------------------------------------------------------------------|
|-----------------------------------------------------------------------------|
|-----------------3-3-3-3-3-3-3-3-2-2-2-2-2-2-2-2-2-2-2-2---------|
|-----------------------------------------------------------------------------|
|-0-0-0-0-0-0-0-0-----------------------------------------5-5-5-5------|#/23t2##/23t1#

#24t1#As duas guitarras
#24t2#|------------------------------------------------------------------------------------|
|------------------------------------------------------------------------------------|
|------------------------------------------------------------------------------------|
|------------------------------------------------------------------------------------|
|------------------------------------------------------------------------------------|
|-7-7-7-7-7-7-7-7-7-7-7-7-5-5-5-5-5-5-5-5-5-5-5-5-1-1-1-1-1-1-1-1-|#/24t2##/24t1#

(Refrão)

(Ponte)

(Repete segundo verso)
Composição: Corey TaylorColaboração e revisão: Érick Nascimentoluiz antoniovinicius maggot