busca

The Herect Anthem

Slipknot

Tom: E
Afinação (da 6ª até a primeira):A E A D F# B

Esta música você é recomendavel tocar com outro guitarrista. Mas
não é nescessário, você pode fazer somente a primeira guitarra.
Ouça bem a música antes, para saber onde para e onde começa cada riff.

Primeira Guitarra
|---------------------|---------------------|---------------------|--------------------|
|---------------------|---------------------|---------------------|--------------------|
|---------------------|---------------------|---------------------|--------------------|
|-0-0-0-1-0-0-0-1-|0-0-0-1-0-0-0-1-|0-0-0-1-0-0-0-1-|0-0-0-1-0-0-0-1-|
|-0-0-0-1-0-0-0-1-|0-0-0-1-0-0-0-1-|0-0-0-1-0-0-0-1-|0-0-0-1-0-0-0-1-|
|-0-0-0-1-0-0-0-1-|0-0-0-1-0-0-0-1-|0-0-0-1-0-0-0-1-|0-0-0-1-0-0-0-1-|
PM

Segunda Guitarra
|-----------------|----------------|----------------|----------------|
|-----------------|----------------|----------------|----------------|
|-----------------|----------------|----------------|----------------|
|-----------------|----------------|0-0-0-1-0-0-0-1-|0-0-0-1-0-0-0-1-|
|-----------------|----------------|0-0-0-1-0-0-0-1-|0-0-0-1-0-0-0-1-|
|-----------------|------------12/0|0-0-0-1-0-0-0-1-|0-0-0-1-0-0-0-1-|
PM             

As Duas Guitarras Juntas
|-----------------|----------------|-----------------|----------------|
|-----------------|----------------|-----------------|----------------|
|-----------------|----------------|-----------------|----------------|
|-0-0-0-1-0-0-0-1-|0-0-0-1-0-0-0-1-|-0-0-0-1-0-0-0-1-|0-0-0-1-0-0-0-1-|
|-0-0-0-1-0-0-0-1-|0-0-0-1-0-0-0-1-|-0-0-0-1-0-0-0-1-|0-0-0-1-0-0-0-1-|
|-0-0-0-1-0-0-0-1-|0-0-0-1-0-0-0-1-|-0-0-0-1-0-0-0-1-|0-0-0-1-0-0-0-1-|
PM 


Both Guitars (2/2 Bar)
    1   &   2   &
|----------------------|
|----------------------|
|----------------------|
|----------------------|
|-----2.1*2.1*2.3*-|
|----------------------|


Both Guitars
|-----------------|----------------|-----------------|----------------|
|-----------------|----------------|-----------------|----------------|
|-----------------|----------------|-----------------|----------------|
|-0-0-0-1-0-0-0-1-|0-0-0-1-0-0-0-1-|-0-0-0-1-0-0-0-1-|0-0-0-1-0-0-0-1-|
|-0-0-0-1-0-0-0-1-|0-0-0-1-0-0-0-1-|-0-0-0-1-0-0-0-1-|0-0-0-1-0-0-0-1-|
|-0-0-0-1-0-0-0-1-|0-0-0-1-0-0-0-1-|-0-0-0-1-0-0-0-1-|0-0-0-1-0-0-0-1-|
PM


Primeira Guitarra (Sozinha)
|-----------------|----------------|
|-----------------|----------------|
|-----------6-5---|----3-2-2-------|
|-0-0-3-2-0-6-5-4-|3-0-3-2-2-0-1-0-|
|-0-0-3-2-0-4-3-4-|3-0-1-0-0-0-1-0-|
|-0-0-3-2-0-----4-|3-0-------0-1-0-|
PM                     | 

As duas juntas (8 vezes)
|-----------------|----------------|
|-----------------|----------------|
|-----------6-5---|----3-2-2-------|
|-0-0-3-2-0-6-5-4-|3-0-3-2-2-0-1-0-|
|-0-0-3-2-0-4-3-4-|3-0-1-0-0-0-1-0-|
|-0-0-3-2-0-----4-|3-0-------0-1-0-|
"I'm a pop star threat..."
PM


As Duas Juntas (Repita Até o Final do Refrão) (4 vezes)
|-----------------|----------------|----------------|----------------|
|-----------------|----------------|----------------|----------------| 
|-----------------|----------------|----------------|----------------|
|-2---3/4/5-4---5/|6---5-6-6-7---7-|2---3/4/5-4---5/|6---5-6-6-7---7-|
|-2---3/4/5-4---5/|6---5-6-6-7---7-|2---3/4/5-4---5/|6---5-6-6-7---7-|
|-2---3/4/5-4---5/|6---5-6-6-7---7-|2---3/4/5-4---5/|6---5-6-6-7---7-|
"If you're five five five then i'm six six six..."
PM


Primeira Guitarra (Sozinha)
|-----------------|----------------|
|-----------------|----------------|
|-----------6-5---|----3-2-2-------|
|-0-0-3p2-0-6-5-4-|3-0-3-2-2-0-1-0-|
|-0-0-3p2-0-4-3-4-|3-0-1-0-0-0-1-0-|
|-0-0-3p2-0-----4-|3-0-------0-1-0-|
PM 


Duas Juntas (4 vezes)
|-----------------|----------------|-----------------|----------------|
|-----------------|----------------|-----------------|----------------|
|-----------------|----------------|-----------------|----------------|
|-0-0-0-1-0-0-0-1-|0-0-1-2-3-2-4-5-|-0-0-0-1-0-0-0-1-|0-0-2-3-4-3-4-5-|
|-0-0-0-1-0-0-0-1-|0-0-1-2-3-2-4-5-|-0-0-0-1-0-0-0-1-|0-0-2-3-4-3-4-5-|
|-0-0-0-1-0-0-0-1-|0-0-1-2-3-2-4-5-|-0-0-0-1-0-0-0-1-|0-0-2-3-4-3-4-5-|
PM 


Duas Juntas (Até o final do refrão, 4 vezes no total)
|-----------------|----------------|----------------|----------------|
|-----------------|----------------|----------------|----------------|
|-----------------|----------------|----------------|----------------|
|-2---3/4/5-4---5/|6---5-6-6-7---7-|2---3/4/5-4---5/|6---5-6-6-7---7-|
|-2---3/4/5-4---5/|6---5-6-6-7---7-|2---3/4/5-4---5/|6---5-6-6-7---7-|
|-2---3/4/5-4---5/|6---5-6-6-7---7-|2---3/4/5-4---5/|6---5-6-6-7---7-|
"If you're five five five then I'm six six six..."
PM



Solo de Bateria (Duas guitarras juntas)
|-----------------|----------------|--------------------|
|-----------------|----------------|--------------------|
|-----------------|----------------|--------------------|
|-----------------|----------------|------------------3-|
|-----------------|----------------|------------------3-|
|-----------------|----------------|------------------3-|
    1 & 2 & 3 & 4 &  1 & 2 & 3 & 4 &  1 & 2 & 3 & 4 & 5 &


Primeira Guitarra                   
|-----------------|----------------|----------------|----------------|
|-----------------|----------------|----------------|----------------|
|-----------------|----------------|----------------|----------------|
|-0-1-0-3---------|----------------|----------------|----------------|
|-0-1-0-3---------|----------------|----------------|----------------|
|-0-1-0-3---------|----------------|----------------|----------------|
                                                                     
Segunda Guitarra
|-----------------|----------------|----------------|----------------|
|-----------------|----------------|----------------|----------------|
|-----------------|----------------|----------------|----------------|
|-0-1-0-3-0-0-0-0-|0-1-2-3-0-1-0-3-|0-1-2-3-0-0-0-0-|0-6-5-0-4-3-0-3-|
|-0-1-0-3-0-0-0-0-|0-1-2-3-0-1-0-3-|0-1-2-3-0-0-0-0-|0-6-5-0-4-3-0-3-|
|-0-1-0-3-0-0-0-0-|0-1-2-3-0-1-0-3-|0-1-2-3-0-0-0-0-|0-6-5-0-4-3-0-3-|
PM


As duas
|-----------------|----------------|----------------|----------------|
|-----------------|----------------|----------------|----------------|
|-----------------|----------------|----------------|----------------|
|-0-1-0-3-0-0-0-0-|0-1-2-3-0-1-0-3-|0-1-2-3-0-0-0-0-|0-6-5-0-4-3-----|
|-0-1-0-3-0-0-0-0-|0-1-2-3-0-1-0-3-|0-1-2-3-0-0-0-0-|0-6-5-0-4-3-----|
|-0-1-0-3-0-0-0-0-|0-1-2-3-0-1-0-3-|0-1-2-3-0-0-0-0-|0-6-5-0-4-3-----|
PM


As Duas Juntas (Nesta parte a música saí da harmonia)
|----------------------|--------------------|---------------------|--------------------|
|----------------------|--------------------|---------------------|--------------------|
|----------------------|--------------------|---------------------|--------------------|
|-0-1-0-3-0-0-0-0-|0-1-2-3-0-1-0-3-|0-1-2-3-0-0-0-0-|0-6-5-0-4-3-0-3-|
|-0-1-0-3-0-0-0-0-|0-1-2-3-0-1-0-3-|0-1-2-3-0-0-0-0-|0-6-5-0-4-3-0-3-|
|-0-1-0-3-0-0-0-0-|0-1-2-3-0-1-0-3-|0-1-2-3-0-0-0-0-|0-6-5-0-4-3-0-3-|
PM 
                                                                           
|---------------------|---------------------|---------------------|--------------------|
|---------------------|---------------------|---------------------|--------------------|
|---------------------|---------------------|---------------------|--------------------|
|-0-1-0-3-0-0-0-0-|0-1-2-3-0-1-0-3-|0-1-2-3-0-0-0-0-|0-6-5-0-4-3------|
|-0-1-0-3-0-0-0-0-|0-1-2-3-0-1-0-3-|0-1-2-3-0-0-0-0-|0-6-5-0-4-3-2.1*|
|-0-1-0-3-0-0-0-0-|0-1-2-3-0-1-0-3-|0-1-2-3-0-0-0-0-|0-6-5-0-4-3------|
PM


As Duas Guitarras
|-------------------|--------------------|------------------|------------------|
|-------------------|--------------------|------------------|------------------|
|-------------------|--------------------|------------------|------------------|
|-0-1-0-3---------|--1-2-3-0-1-0-3-|0-1-2-3---------|------1-5-1-----|
|-0-1-0-3---------|--1-2-3-0-1-0-3-|0-1-2-3---------|------1-5-1-----|
|-0-1-0-3---------|--1-2-3-0-1-0-3-|0-1-2-3---------|------1-5-1-----|


As Duas Guitarras
|-----------------|----------------|----------------|----------------|
|-----------------|----------------|----------------|----------------|
|-----------------|----------------|----------------|----------------|
|-0-1-0-3---------|--1-2-3-0-1-0-3-|0-1-2-3---------|----------0-0-0-|
|-0-1-0-3---------|--1-2-3-0-1-0-3-|0-1-2-3---------|----------0-0-0-|
|-0-1-0-3---------|--1-2-3-0-1-0-3-|0-1-2-3---------|----------0-0-0-|

Primeira Guitarra
|-------------------|--------------------|------------------|------------------|
|-------------------|--------------------|------------------|------------------|
|-------------------|--------------------|------------------|------------------|
|-0-1-0-3---------|--1-2-3-0-1-0-3-|0-1-2-3---------|------1-5-1-----|
|-0-1-0-3---------|--1-2-3-0-1-0-3-|0-1-2-3---------|------1-5-1-----|
|-0-1-0-3---------|--1-2-3-0-1-0-3-|0-1-2-3---------|------1-5-1-----|

Segunda Guitarra
|---------------------|---------------------|---------------------|--------------------|
|---------------------|---------------------|---------------------|--------------------|
|---------------------|---------------------|---------------------|--------------------|
|---------------------|---------------------|---------------------|--------------------|
|---------------------|---------------------|---------------------|--------------------|
|-0-0-0-0-0-0-0-0-|0-0-0-0-0-0-0-0-|0-0-0-0-0-0-0-0-|0-0-0-0-0-0-0-0-|
PM


Primeira Guitarra
|-------------------|--------------------|-------------------|----------------|
|-------------------|--------------------|-------------------|----------------|
|-------------------|--------------------|-------------------|----------0-----|
|-0-1-0-3---------|--1-2-3-0-1-0-3-|0-1-2-3---------|------------0---|
|-0-1-0-3---------|--1-2-3-0-1-0-3-|0-1-2-3---------|--------------0-|
|-0-1-0-3---------|--1-2-3-0-1-0-3-|0-1-2-3---------|----------------|

Segunda Guitarra
|----------------------|--------------------|--------------------|-------------------|
|----------------------|--------------------|--------------------|-------------------|
|----------------------|--------------------|--------------------|----------0--------|
|----------------------|--------------------|--------------------|------------0------|
|----------------------|--------------------|--------------------|--------------0----|
|-0-0-0-0-0-0-0-0-|0-0-0-0-0-0-0-0-|0-0-0-0-0-0-0-0-|0-0-0-0-0-------|
PM 


Primeira Guitarra (Tremolo) (4 vezes)
|---------------------|---------------------|---------------------|--------------------|
|---------------------|---------------------|---------------------|--------------------|
|---------------------|---------------------|---------------------|--------------------|
|-2-2-2-2-5-5-5-5-|4-4-4-4-5-5-5-5-|6-6-6-6-5-5-6-6-|6-6-7-7-7-7-7-7-|
|---------------------|---------------------|---------------------|--------------------|
|---------------------|---------------------|---------------------|--------------------|


Primeira Guitarra (Tremolo) (4 vezes)
|---------------------|---------------------|---------------------|------------------------|
|-5-5-5-5-8-8-8-8-|7-7-7-7-8-8-8-8-|9-9-9-9-8-8-9-9-|9-9-101010101010|
|---------------------|---------------------|---------------------|------------------------|
|---------------------|---------------------|---------------------|------------------------|
|---------------------|---------------------|---------------------|------------------------|
|---------------------|---------------------|---------------------|------------------------|


Duas Guitarras Juntas (2 vezes)
|--------------------|-------------------|-------------------|--------------------|
|--------------------|-------------------|-------------------|--------------------|
|--------------------|-------------------|-------------------|--------------------|
|-2---3/4/5-4---5/|6---5-6-6-7---7-|2---3/4/5-4---5/|6---5-6-6-7---7-|
|-2---3/4/5-4---5/|6---5-6-6-7---7-|2---3/4/5-4---5/|6---5-6-6-7---7-|
|-2---3/4/5-4---5/|6---5-6-6-7---7-|2---3/4/5-4---5/|6---5-6-6-7---7-|
"If you're five five five then i'm six six six..."

Primeira Guitarra (Tremolo)
|-----------------|------------------|-----------------|-----------------|
|-5ttt8ttt7ttt8ttt|9ttt8t9ttt10tttt|5ttt8ttt7ttt8ttt|9ttt8t9ttt10tttt|
|-----------------|------------------|-----------------|-----------------|
|-----------------|------------------|-----------------|-----------------|
|-----------------|------------------|-----------------|-----------------|
|-----------------|------------------|-----------------|-----------------|
                                                                           
Segunda Guitarra                                                            
|--------------------|-------------------|-------------------|-------------------|
|--------------------|-------------------|-------------------|-------------------|
|--------------------|-------------------|-------------------|-------------------|
|-2---3/4/5-4---5/|6---5-6-6-7---7-|2---3/4/5-4---5/|6---5-6-6-7---7-|
|-2---3/4/5-4---5/|6---5-6-6-7---7-|2---3/4/5-4---5/|6---5-6-6-7---7-|
|-2---3/4/5-4---5/|6---5-6-6-7---7-|2---3/4/5-4---5/|6---5-6-6-7---7-|



As Duas Juntas (8 vezes)
|----------------------|--------------------|---------------------|--------------------|
|----------------------|--------------------|---------------------|--------------------| 
|----------------------|--------------------|---------------------|--------------------| 
|-0-1-0-3-0-0-0-0-|0-1-2-3-0-1-0-3-|0-1-2-3-0-0-0-0-|0-6-5-0-4-3-0-3-|
|-0-1-0-3-0-0-0-0-|0-1-2-3-0-1-0-3-|0-1-2-3-0-0-0-0-|0-6-5-0-4-3-0-3-|
|-0-1-0-3-0-0-0-0-|0-1-2-3-0-1-0-3-|0-1-2-3-0-0-0-0-|0-6-5-0-4-3-0-3-|
PM   

As Duas Juntas
|---------------------|---------------------|--------------------|--------------------|
|---------------------|---------------------|--------------------|--------------------|
|---------------------|---------------------|--------------------|--------------------|
|-0-1-0-3-0-0-0-0-|0-1-2-3-0-1-0-3-|0-1-2-3-0-0-0-0-|0-6-5-0-4-------|
|-0-1-0-3-0-0-0-0-|0-1-2-3-0-1-0-3-|0-1-2-3-0-0-0-0-|0-6-5-0-4-------|
|-0-1-0-3-0-0-0-0-|0-1-2-3-0-1-0-3-|0-1-2-3-0-0-0-0-|0-6-5-0-4-------|
PM

Por João Justi
Dúvidas, reclamações, sugestões e etc?
Ou quer pedir uma tablatura?

Clipes

Cifra Club Pro

Aproveite o Cifra Club com benefícios exclusivos e sem anúncios
Cifra Club Pro
Aproveite o Cifra Club com benefícios exclusivos e sem anúncios