The Herect Anthem

Slipknot

Tom: G
Afinação (da 6ª até a primeira):A E A D F# B

Esta música você é recomendavel tocar com outro guitarrista. Mas
não é nescessário, você pode fazer somente a primeira guitarra.
Ouça bem a música antes, para saber onde para e onde começa cada riff.

#1t1#Primeira Guitarra
#1t2#|---------------------|---------------------|---------------------|--------------------|
|---------------------|---------------------|---------------------|--------------------|
|---------------------|---------------------|---------------------|--------------------|
|-0-0-0-1-0-0-0-1-|0-0-0-1-0-0-0-1-|0-0-0-1-0-0-0-1-|0-0-0-1-0-0-0-1-|
|-0-0-0-1-0-0-0-1-|0-0-0-1-0-0-0-1-|0-0-0-1-0-0-0-1-|0-0-0-1-0-0-0-1-|
|-0-0-0-1-0-0-0-1-|0-0-0-1-0-0-0-1-|0-0-0-1-0-0-0-1-|0-0-0-1-0-0-0-1-|
PM#/1t2##/1t1#

#2t1#Segunda Guitarra
#2t2#|-----------------|----------------|----------------|----------------|
|-----------------|----------------|----------------|----------------|
|-----------------|----------------|----------------|----------------|
|-----------------|----------------|0-0-0-1-0-0-0-1-|0-0-0-1-0-0-0-1-|
|-----------------|----------------|0-0-0-1-0-0-0-1-|0-0-0-1-0-0-0-1-|
|-----------------|------------12/0|0-0-0-1-0-0-0-1-|0-0-0-1-0-0-0-1-|
PM             #/2t2##/2t1#

#3t1#As Duas Guitarras Juntas
#3t2#|-----------------|----------------|-----------------|----------------|
|-----------------|----------------|-----------------|----------------|
|-----------------|----------------|-----------------|----------------|
|-0-0-0-1-0-0-0-1-|0-0-0-1-0-0-0-1-|-0-0-0-1-0-0-0-1-|0-0-0-1-0-0-0-1-|
|-0-0-0-1-0-0-0-1-|0-0-0-1-0-0-0-1-|-0-0-0-1-0-0-0-1-|0-0-0-1-0-0-0-1-|
|-0-0-0-1-0-0-0-1-|0-0-0-1-0-0-0-1-|-0-0-0-1-0-0-0-1-|0-0-0-1-0-0-0-1-|
PM #/3t2##/3t1#


Both Guitars (2/2 Bar)
    1   &   2   &
#4t1##4t2#|----------------------|
|----------------------|
|----------------------|
|----------------------|
|-----2.1*2.1*2.3*-|
|----------------------|#/4t2##/4t1#


#5t1#Both Guitars
#5t2#|-----------------|----------------|-----------------|----------------|
|-----------------|----------------|-----------------|----------------|
|-----------------|----------------|-----------------|----------------|
|-0-0-0-1-0-0-0-1-|0-0-0-1-0-0-0-1-|-0-0-0-1-0-0-0-1-|0-0-0-1-0-0-0-1-|
|-0-0-0-1-0-0-0-1-|0-0-0-1-0-0-0-1-|-0-0-0-1-0-0-0-1-|0-0-0-1-0-0-0-1-|
|-0-0-0-1-0-0-0-1-|0-0-0-1-0-0-0-1-|-0-0-0-1-0-0-0-1-|0-0-0-1-0-0-0-1-|
PM#/5t2##/5t1#


#6t1#Primeira Guitarra (Sozinha)
#6t2#|-----------------|----------------|
|-----------------|----------------|
|-----------6-5---|----3-2-2-------|
|-0-0-3-2-0-6-5-4-|3-0-3-2-2-0-1-0-|
|-0-0-3-2-0-4-3-4-|3-0-1-0-0-0-1-0-|
|-0-0-3-2-0-----4-|3-0-------0-1-0-|
PM                     | #/6t2##/6t1#

#7t1#As duas juntas (8 vezes)
#7t2#|-----------------|----------------|
|-----------------|----------------|
|-----------6-5---|----3-2-2-------|
|-0-0-3-2-0-6-5-4-|3-0-3-2-2-0-1-0-|
|-0-0-3-2-0-4-3-4-|3-0-1-0-0-0-1-0-|
|-0-0-3-2-0-----4-|3-0-------0-1-0-|#/7t2##/7t1#
"I'm a pop star threat..."
PM


#8t1#As Duas Juntas (Repita Até o Final do Refrão) (4 vezes)
#8t2#|-----------------|----------------|----------------|----------------|
|-----------------|----------------|----------------|----------------| 
|-----------------|----------------|----------------|----------------|
|-2---3/4/5-4---5/|6---5-6-6-7---7-|2---3/4/5-4---5/|6---5-6-6-7---7-|
|-2---3/4/5-4---5/|6---5-6-6-7---7-|2---3/4/5-4---5/|6---5-6-6-7---7-|
|-2---3/4/5-4---5/|6---5-6-6-7---7-|2---3/4/5-4---5/|6---5-6-6-7---7-|#/8t2##/8t1#
"If you're five five five then i'm six six six..."
PM


#9t1#Primeira Guitarra (Sozinha)
#9t2#|-----------------|----------------|
|-----------------|----------------|
|-----------6-5---|----3-2-2-------|
|-0-0-3p2-0-6-5-4-|3-0-3-2-2-0-1-0-|
|-0-0-3p2-0-4-3-4-|3-0-1-0-0-0-1-0-|
|-0-0-3p2-0-----4-|3-0-------0-1-0-|
PM #/9t2##/9t1#


#10t1#Duas Juntas (4 vezes)
#10t2#|-----------------|----------------|-----------------|----------------|
|-----------------|----------------|-----------------|----------------|
|-----------------|----------------|-----------------|----------------|
|-0-0-0-1-0-0-0-1-|0-0-1-2-3-2-4-5-|-0-0-0-1-0-0-0-1-|0-0-2-3-4-3-4-5-|
|-0-0-0-1-0-0-0-1-|0-0-1-2-3-2-4-5-|-0-0-0-1-0-0-0-1-|0-0-2-3-4-3-4-5-|
|-0-0-0-1-0-0-0-1-|0-0-1-2-3-2-4-5-|-0-0-0-1-0-0-0-1-|0-0-2-3-4-3-4-5-|
PM #/10t2##/10t1#


#11t1#Duas Juntas (Até o final do refrão, 4 vezes no total)
#11t2#|-----------------|----------------|----------------|----------------|
|-----------------|----------------|----------------|----------------|
|-----------------|----------------|----------------|----------------|
|-2---3/4/5-4---5/|6---5-6-6-7---7-|2---3/4/5-4---5/|6---5-6-6-7---7-|
|-2---3/4/5-4---5/|6---5-6-6-7---7-|2---3/4/5-4---5/|6---5-6-6-7---7-|
|-2---3/4/5-4---5/|6---5-6-6-7---7-|2---3/4/5-4---5/|6---5-6-6-7---7-|#/11t2##/11t1#
"If you're five five five then I'm six six six..."
PM



#12t1#Solo de Bateria (Duas guitarras juntas)
#12t2#|-----------------|----------------|--------------------|
|-----------------|----------------|--------------------|
|-----------------|----------------|--------------------|
|-----------------|----------------|------------------3-|
|-----------------|----------------|------------------3-|
|-----------------|----------------|------------------3-|#/12t2##/12t1#
    1 & 2 & 3 & 4 &  1 & 2 & 3 & 4 &  1 & 2 & 3 & 4 & 5 &


#13t1#Primeira Guitarra                   
#13t2#|-----------------|----------------|----------------|----------------|
|-----------------|----------------|----------------|----------------|
|-----------------|----------------|----------------|----------------|
|-0-1-0-3---------|----------------|----------------|----------------|
|-0-1-0-3---------|----------------|----------------|----------------|
|-0-1-0-3---------|----------------|----------------|----------------|#/13t2##/13t1#
                                                                     
#14t1#Segunda Guitarra
#14t2#|-----------------|----------------|----------------|----------------|
|-----------------|----------------|----------------|----------------|
|-----------------|----------------|----------------|----------------|
|-0-1-0-3-0-0-0-0-|0-1-2-3-0-1-0-3-|0-1-2-3-0-0-0-0-|0-6-5-0-4-3-0-3-|
|-0-1-0-3-0-0-0-0-|0-1-2-3-0-1-0-3-|0-1-2-3-0-0-0-0-|0-6-5-0-4-3-0-3-|
|-0-1-0-3-0-0-0-0-|0-1-2-3-0-1-0-3-|0-1-2-3-0-0-0-0-|0-6-5-0-4-3-0-3-|
PM#/14t2##/14t1#


#15t1#As duas
#15t2#|-----------------|----------------|----------------|----------------|
|-----------------|----------------|----------------|----------------|
|-----------------|----------------|----------------|----------------|
|-0-1-0-3-0-0-0-0-|0-1-2-3-0-1-0-3-|0-1-2-3-0-0-0-0-|0-6-5-0-4-3-----|
|-0-1-0-3-0-0-0-0-|0-1-2-3-0-1-0-3-|0-1-2-3-0-0-0-0-|0-6-5-0-4-3-----|
|-0-1-0-3-0-0-0-0-|0-1-2-3-0-1-0-3-|0-1-2-3-0-0-0-0-|0-6-5-0-4-3-----|
PM#/15t2##/15t1#


#16t1#As Duas Juntas (Nesta parte a música saí da harmonia)
#16t2#|----------------------|--------------------|---------------------|--------------------|
|----------------------|--------------------|---------------------|--------------------|
|----------------------|--------------------|---------------------|--------------------|
|-0-1-0-3-0-0-0-0-|0-1-2-3-0-1-0-3-|0-1-2-3-0-0-0-0-|0-6-5-0-4-3-0-3-|
|-0-1-0-3-0-0-0-0-|0-1-2-3-0-1-0-3-|0-1-2-3-0-0-0-0-|0-6-5-0-4-3-0-3-|
|-0-1-0-3-0-0-0-0-|0-1-2-3-0-1-0-3-|0-1-2-3-0-0-0-0-|0-6-5-0-4-3-0-3-|
PM #/16t2##/16t1#
                                                                           
#17t1##17t2#|---------------------|---------------------|---------------------|--------------------|
|---------------------|---------------------|---------------------|--------------------|
|---------------------|---------------------|---------------------|--------------------|
|-0-1-0-3-0-0-0-0-|0-1-2-3-0-1-0-3-|0-1-2-3-0-0-0-0-|0-6-5-0-4-3------|
|-0-1-0-3-0-0-0-0-|0-1-2-3-0-1-0-3-|0-1-2-3-0-0-0-0-|0-6-5-0-4-3-2.1*|
|-0-1-0-3-0-0-0-0-|0-1-2-3-0-1-0-3-|0-1-2-3-0-0-0-0-|0-6-5-0-4-3------|
PM#/17t2##/17t1#


#18t1#As Duas Guitarras
#18t2#|-------------------|--------------------|------------------|------------------|
|-------------------|--------------------|------------------|------------------|
|-------------------|--------------------|------------------|------------------|
|-0-1-0-3---------|--1-2-3-0-1-0-3-|0-1-2-3---------|------1-5-1-----|
|-0-1-0-3---------|--1-2-3-0-1-0-3-|0-1-2-3---------|------1-5-1-----|
|-0-1-0-3---------|--1-2-3-0-1-0-3-|0-1-2-3---------|------1-5-1-----|#/18t2##/18t1#


#19t1#As Duas Guitarras
#19t2#|-----------------|----------------|----------------|----------------|
|-----------------|----------------|----------------|----------------|
|-----------------|----------------|----------------|----------------|
|-0-1-0-3---------|--1-2-3-0-1-0-3-|0-1-2-3---------|----------0-0-0-|
|-0-1-0-3---------|--1-2-3-0-1-0-3-|0-1-2-3---------|----------0-0-0-|
|-0-1-0-3---------|--1-2-3-0-1-0-3-|0-1-2-3---------|----------0-0-0-|#/19t2##/19t1#

#20t1#Primeira Guitarra
#20t2#|-------------------|--------------------|------------------|------------------|
|-------------------|--------------------|------------------|------------------|
|-------------------|--------------------|------------------|------------------|
|-0-1-0-3---------|--1-2-3-0-1-0-3-|0-1-2-3---------|------1-5-1-----|
|-0-1-0-3---------|--1-2-3-0-1-0-3-|0-1-2-3---------|------1-5-1-----|
|-0-1-0-3---------|--1-2-3-0-1-0-3-|0-1-2-3---------|------1-5-1-----|#/20t2##/20t1#

#21t1#Segunda Guitarra
#21t2#|---------------------|---------------------|---------------------|--------------------|
|---------------------|---------------------|---------------------|--------------------|
|---------------------|---------------------|---------------------|--------------------|
|---------------------|---------------------|---------------------|--------------------|
|---------------------|---------------------|---------------------|--------------------|
|-0-0-0-0-0-0-0-0-|0-0-0-0-0-0-0-0-|0-0-0-0-0-0-0-0-|0-0-0-0-0-0-0-0-|
PM#/21t2##/21t1#


#22t1#Primeira Guitarra
#22t2#|-------------------|--------------------|-------------------|----------------|
|-------------------|--------------------|-------------------|----------------|
|-------------------|--------------------|-------------------|----------0-----|
|-0-1-0-3---------|--1-2-3-0-1-0-3-|0-1-2-3---------|------------0---|
|-0-1-0-3---------|--1-2-3-0-1-0-3-|0-1-2-3---------|--------------0-|
|-0-1-0-3---------|--1-2-3-0-1-0-3-|0-1-2-3---------|----------------|#/22t2##/22t1#

#23t1#Segunda Guitarra
#23t2#|----------------------|--------------------|--------------------|-------------------|
|----------------------|--------------------|--------------------|-------------------|
|----------------------|--------------------|--------------------|----------0--------|
|----------------------|--------------------|--------------------|------------0------|
|----------------------|--------------------|--------------------|--------------0----|
|-0-0-0-0-0-0-0-0-|0-0-0-0-0-0-0-0-|0-0-0-0-0-0-0-0-|0-0-0-0-0-------|
PM #/23t2##/23t1#


#24t1#Primeira Guitarra (Tremolo) (4 vezes)
#24t2#|---------------------|---------------------|---------------------|--------------------|
|---------------------|---------------------|---------------------|--------------------|
|---------------------|---------------------|---------------------|--------------------|
|-2-2-2-2-5-5-5-5-|4-4-4-4-5-5-5-5-|6-6-6-6-5-5-6-6-|6-6-7-7-7-7-7-7-|
|---------------------|---------------------|---------------------|--------------------|
|---------------------|---------------------|---------------------|--------------------|#/24t2##/24t1#


#25t1#Primeira Guitarra (Tremolo) (4 vezes)
#25t2#|---------------------|---------------------|---------------------|------------------------|
|-5-5-5-5-8-8-8-8-|7-7-7-7-8-8-8-8-|9-9-9-9-8-8-9-9-|9-9-101010101010|
|---------------------|---------------------|---------------------|------------------------|
|---------------------|---------------------|---------------------|------------------------|
|---------------------|---------------------|---------------------|------------------------|
|---------------------|---------------------|---------------------|------------------------|#/25t2##/25t1#


#26t1#Duas Guitarras Juntas (2 vezes)
#26t2#|--------------------|-------------------|-------------------|--------------------|
|--------------------|-------------------|-------------------|--------------------|
|--------------------|-------------------|-------------------|--------------------|
|-2---3/4/5-4---5/|6---5-6-6-7---7-|2---3/4/5-4---5/|6---5-6-6-7---7-|
|-2---3/4/5-4---5/|6---5-6-6-7---7-|2---3/4/5-4---5/|6---5-6-6-7---7-|
|-2---3/4/5-4---5/|6---5-6-6-7---7-|2---3/4/5-4---5/|6---5-6-6-7---7-|#/26t2##/26t1#
"If you're five five five then i'm six six six..."

#27t1#Primeira Guitarra (Tremolo)
#27t2#|-----------------|------------------|-----------------|-----------------|
|-5ttt8ttt7ttt8ttt|9ttt8t9ttt10tttt|5ttt8ttt7ttt8ttt|9ttt8t9ttt10tttt|
|-----------------|------------------|-----------------|-----------------|
|-----------------|------------------|-----------------|-----------------|
|-----------------|------------------|-----------------|-----------------|
|-----------------|------------------|-----------------|-----------------|#/27t2##/27t1#
                                                                           
#28t1#Segunda Guitarra                                                            
#28t2#|--------------------|-------------------|-------------------|-------------------|
|--------------------|-------------------|-------------------|-------------------|
|--------------------|-------------------|-------------------|-------------------|
|-2---3/4/5-4---5/|6---5-6-6-7---7-|2---3/4/5-4---5/|6---5-6-6-7---7-|
|-2---3/4/5-4---5/|6---5-6-6-7---7-|2---3/4/5-4---5/|6---5-6-6-7---7-|
|-2---3/4/5-4---5/|6---5-6-6-7---7-|2---3/4/5-4---5/|6---5-6-6-7---7-|#/28t2##/28t1#



#29t1#As Duas Juntas (8 vezes)
#29t2#|----------------------|--------------------|---------------------|--------------------|
|----------------------|--------------------|---------------------|--------------------| 
|----------------------|--------------------|---------------------|--------------------| 
|-0-1-0-3-0-0-0-0-|0-1-2-3-0-1-0-3-|0-1-2-3-0-0-0-0-|0-6-5-0-4-3-0-3-|
|-0-1-0-3-0-0-0-0-|0-1-2-3-0-1-0-3-|0-1-2-3-0-0-0-0-|0-6-5-0-4-3-0-3-|
|-0-1-0-3-0-0-0-0-|0-1-2-3-0-1-0-3-|0-1-2-3-0-0-0-0-|0-6-5-0-4-3-0-3-|
PM   #/29t2##/29t1#

#30t1#As Duas Juntas
#30t2#|---------------------|---------------------|--------------------|--------------------|
|---------------------|---------------------|--------------------|--------------------|
|---------------------|---------------------|--------------------|--------------------|
|-0-1-0-3-0-0-0-0-|0-1-2-3-0-1-0-3-|0-1-2-3-0-0-0-0-|0-6-5-0-4-------|
|-0-1-0-3-0-0-0-0-|0-1-2-3-0-1-0-3-|0-1-2-3-0-0-0-0-|0-6-5-0-4-------|
|-0-1-0-3-0-0-0-0-|0-1-2-3-0-1-0-3-|0-1-2-3-0-0-0-0-|0-6-5-0-4-------|
PM#/30t2##/30t1#

Por João Justi
Dúvidas, reclamações, sugestões e etc?
Ou quer pedir uma tablatura?
Composição: Jay Weinberg / Mick Thomson / Sid Wilson / Alessandro Venturella / Allan Rock / Anders Colsefni / Chris Fehn / Corey Taylor / Craig Jones / James Root / Jim Root / Joey Jordison / Josh Brainard / M. Shawn Crahan / Mick Thomson / Paul Gray / Ritch Ronnan / Shawn Crahan / Sid Wilson / Slipknot / Slipknot feat Linkin ParkColaboração e revisão: