busca

The Nameless

Slipknot

Tom: A
Versão do clipe da música

Tuning: Drop B

Guitarra 1 part...

C#|--------------------------------------------x2-|
G#|-----------------------------------------------|
E|-4-4--5-5-5-5-5-5-4-4--7-----5-5-5-5-5-5-4-4---|
B|-------------------------7---------------------|
F#|-----------------------------------------------|
B|-----------------------------------------------|
    . .  . . . . . . . .  . .   . . . . . . . .

C#|--------------------------------------------------------------|
G#|--------------------------------------------------------------|
E|-4-4--5-5-5-5-5-5-4-4--7--------------------------------------|
B|-------------------------0------------------------------------|
F#|---------------------------1-1-1-1-1-1-1-1-1-1-1-1-1-1-1-1-1--|
B|---------------------------1-1-1-1-1-1-1-1-1-1-1-1-1-1-1-1-1--|
    . .  . . . . . . . .      . . . . . . . . . . . . . . . . .

C#|---------------------------------------------------------------|
G#|o--------------------------------------------------------------|
E|---------------------------------------------------------------|
B|--4\3---------------------------4\3----------------------------|
F#|o-2\1-0---------------6p5-6p5---2\1-0---------------------0h1--|
B|--------2-0-0-0-0-0-0-6p5-6p5-0-------2-0-0-0-0-0-0-0h2h3------|
               . . . . .                     . . . . .

C#|-----------------------------------------|
G#|-----------------------------------------|
E|-----------------------------------------|
B|-4\3-----1h4p1-2h5p2-3h6p3-2h5p2-3h5p3-4-|
F#|-2\1-0-----------------------------------|
B|-------2---------------------------------|


C#|----------first-ending-----------|-------second-ending-------------|
G#|--------------------------------o|---------------------------------|
E|---------------------------------|---------------------------------|
B|-4\3-------4\3-------------------|-4\3-------4\3-------------------|
F#|-2\1-0-2-0-2\1p0-----------0-1--o|-2\1-0-2-0-2\1-0-----------0-----|
B|-------2-0-------2p0-2-3-5-------|-------2-0-------2p0-2-3-5---2-0-|


C#|--------------------------------------------|
G#|--------------------------------------------|
E|--------------------------------------------|
B|--------------------------------------------|
F#|-2-2------------------------------------2-2-|
B|-2-2--3-3-3-3-3-3-2-2--5-0--3-3-3-3-3-3-2-2-|


C#|-----------------------------------------------|
G#|-----------------------------------------------|
E|-----------------------------------------------|
B|-----------------------------------------------|
F#|-2-2---------------------------------------2---|
B|-2-2--3-3-3-3-3-3-3-2-2--5-1---3-3-3-3-3-3-2---|


C#|------------------------------------------------|
G#|------------------------------------------------|
E|------------------------------------------------|
B|------------------------------------------------|
F#|-2-2---------------------------------------2-2--|
B|-2-2--3-3-3-3-3-3-3-2-2--5-1---3-3-3-3-3-3-2-2--|


C#|----------------------------------------------------------------|
G#|----------------------------------------------------------------|
E|----------------------------------------------------------------|
B|----------------------------------------------------------------|
F#|-2-2-------------------------1-1-1-1-1-1-1-1-1-1-1-1-1-1-1-1-1--|
B|-2-2--3-3-3-3-3-3-3-2-2--5-1-1-1-1-1-1-1-1-1-1-1-1-1-1-1-1-1-1--|
                                . . . . . . . . . . . . . . . . .

C#|--------------------------------------------------------------------|
G#|--------------------------------------------------------------------|
E|--------------------------------------------------------------------|
B|-4\3-0-------------------------4\3-0---------------------3-4\3-0----|
F#|-2\1-0---------------6p5-6p5---2\1-0-------------5h6-3h5-1-2\1-0----|
B|-------0-0-0-0-0-0-0-6p5-6p5-0-------0-0-0-0-0-0-5h6-3h5---------0--|
            . . . . . .                 . . . . . .

C#|-----------------------------------|----------------------------|
G#|-----------------------------------|----------------------------|
E|-----------------------------------|----------------------------|
B|-1h4p1-2h5p2-3h6p3-2h5p2-3h5p3-4---|-4\3-0-----4\3--------------|
F#|-----------------------------------|-2\1-0-2-0-2\1p0-2-0-2-3-5--|
B|-----------------------------------|-------2-0-------2-0-2-3-5--|


C#|------5~~-----6~~--5~~----------|+
G#|----6-------6------5~~----------|
E|--7-------7--------6~~----------|
B|--------------------------------|
F#|--------------------------------|
B|--------------------------------|

C#|------5~~-----6~~--5~~----------|+
G#|----6-------6------5~~----------|
E|--7-------7--------6~~----------|
B|---------------------------1~~--|
F#|---------------------------1~~--|
B|---------------------------1~~--|


C#|--------------------------------------------x2-|
G#|-----------------------------------------------|
E|-4-4--5-5-5-5-5-5-4-4--7-----5-5-5-5-5-5-4-4---|
B|-------------------------7---------------------| bass slide
F#|-----------------------------------------------|
B|-----------------------------------------------|
    . .  . . . . . . . .  . .   . . . . . . . .

C#|----------------------------------------------x3-|
G#|-------------------------------------------------|
E|-------------------------------------------------|
B|-------------------------------------------------|
F#|-------------------------------------------------|
B|-0-0--1-1-1-1-1-1-0-0--0-0---1-1-1-1-1-1-0-0-----|


C#|---------------------------------------------------------------|
G#|---------------------------------------------------------------|
E|---------------------------------------------------------------|
B|---------------------------------------------------------------|
F#|-------------------------------1-1-1-1-1-1-1-1-1-1-1-1-1-1-1---|
B|-0-0--1-1-1-1-1-1-0-0--0-0-1-1-1-1-1-1-1-1-1-1-1-1-1-1-1-1-1---|
                              . . . . . . . . . . . . . . . . .

C#|--------------------------------------------------------------------|
G#|--------------------------------------------------------------------|
E|--------------------------------------------------------------------|
B|-4\3-0-------------------------4\3-0---------------------3-4\3-0----|
F#|-2\1-0---------------6p5-6p5---2\1-0-------------5h6-3h5-1-2\1-0----|
B|-------0-0-0-0-0-0-0-6p5-6p5-0-------0-0-0-0-0-0-5h6-3h5---------0--|
            . . . . . .                 . . . . . .

C#|-----------------------------------|----------------------------|
G#|-----------------------------------|----------------------------|
E|-----------------------------------|----------------------------|
B|-1h4p1-2h5p2-3h6p3-2h5p2-3h5p3-4---|-4\3-0-----4\3--------------|
F#|-----------------------------------|-2\1-0-2-0-2\1p0-2-0-2-3-5--|
B|-----------------------------------|-------2-0-------2-0-2-3-5--|


C#|------5~~-----6~~--5~~----------|+
G#|----6-------6------5~~----------|
E|--7-------7--------6~~----------|
B|--------------------------------|
F#|--------------------------------|
B|--------------------------------|

C#|------5~~-----6~~--5~~----------|+
G#|----6-------6------5~~----------|
E|--7-------7--------6~~----------|
B|---------------------------1~~--|
F#|---------------------------1~~--|
B|---------------------------1~~--|


C#|--------------------------------------------------------------------x2-|
G#|-----------------------------------------------------------------------|
E|-----------------------------------------------------------------------|
B|-----------------------------------------------------------------------|
F#|---------------------------3-4--------------------------------2-1------|
B|-8\1-0-2-11-0-8\1-0-2-11-0-----6-5--8\1-0-2-11-0-8\1-0-2-11-0-----1-2--|


C#|--------------------------------------------------------------------x4-|
G#|-----------------------------------------------------------------------|
E|-----------------------------------------------------------------------|
B|---------------------------5-6--------------------------------4-3------|
F#|-8\1-0-2-11-0-8\1-0-2-11-0-3-4-6-5--8\1-0-2-11-0-8\1-0-2-11-0-2-1-1-2--|
B|-8\1-0-2-11-0-8\1-0-2-11-0-----6-5--8\1-0-2-11-0-8\1-0-2-11-0-----1-2--|
        . . .. .     . . .. .              . . .. .     . . .. .

C#|-----------------------|-------------------------------------x2-|
G#|-----------------------|----------------------------------------|
E|--------------------AHHHH--------/12-10-10\---------------------|
B|-6-5------v--v--v------|-----------x--x--x------7\--------------|
F#|-4-3-3-4---------------|-0--3--0-/10--8--8\--7--5\-3--6---------|
B|-----3-4--0--0--0------|-0--3--0-------------7-----3--6--0\/*---|


C#|--------------------------------------------------------|
G#|---------------onze|-------------------------------------|
E|-------------------------------2--5--8------------------|
B|----------------------------------x--x------------------|
F#|-0--3--0--8--111111111111---7-----3--6------------------|
B|-0--3--0--8---8-8-8-8-8-8-8-7-----------0-0-0-0-0-0-0---|
                 . . . . . . .               . . . . . .

C#|--------------------------------------------------------|
G#|--------------------------------------------------------|
E|--------------------------------------------------------|
B|-------------------------------7\-----------------------|
F#|-0--3--0--8--111111111111---7--5\-3--6------------------|
B|-0--3--0--8---8-8-8-8-8-8-7-7-----3--6--------/19\------|
                 . . . . . . .

C#|-----------------------------------------------------------------------|
G#|-----------------------------------------------------------------------|
E|-----------------------------------------------------------------------|
B|-----------------------------------------------------------------------|
F#|---------------------------3-4--------------------------------2-1------|
B|-8\1-0-2-11-0-8\1-0-2-11-0-----6-5--8\1-0-2-11-0-8\1-0-2-11-0-----1-2--|


C#|--------------------------------------------------------------------x2-|
G#|-----------------------------------------------------------------------|
E|-----------------------------------------------------------------------|
B|---------------------------5-6--------------------------------4-3------|
F#|-8\1-0-2-11-0-8\1-0-2-11-0-3-4-6-5--8\1-0-2-11-0-8\1-0-2-11-0-2-1-1-2--|
B|-8\1-0-2-11-0-8\1-0-2-11-0-----6-5--8\1-0-2-11-0-8\1-0-2-11-0-----1-2--|


C#|---------------------------------------------------------------|
G#|---------------------------------------------------------------|
E|---------------------------------------------------------------|
B|---------------------------5-6---------------------------------|
F#|-8\1-0-2-11-0-8\1-0-2-11-0-3-4-6-5--8\1-0-2-11-0-8\1-0-2-11-0--|
B|-8\1-0-2-11-0-8\1-0-2-11-0-----6-5--8\1-0-2-11-0-8\1-0-2-11-0--|
        . . .. .     . . .. .              . . .. .     . . ..

And you are finished!

~~~~~~~~~~~~~~~~~~~~~~~~~~~~~~~~~~~~~~~~~~~~~~~~~~~~~~~~~~~~~~~~~~~~~~~~~

Guitar 2 part:

C#|--------------------------------------------x2-|
G#|-----------------------------------------------|
E|-----------------------------------------------|
B|-2-2--3-3-3-3-3-3-2-2--5-1---3-3-3-3-3-3-2-2---|
F#|-----------------------------------------------|
B|-----------------------------------------------|
    . .  . . . . . . . .  . .   . . . . . . . .

C#|--------------------------------------------------------------|
G#|--------------------------------------------------------------|
E|--------------------------------------------------------------|
B|-2-2--3-3-3-3-3-3-2-2--5p0------------------------------------|
F#|---------------------------1-1-1-1-1-1-1-1-1-1-1-1-1-1-1-1-1--|
B|---------------------------1-1-1-1-1-1-1-1-1-1-1-1-1-1-1-1-1--|
    . .  . . . . . . . .      . . . . . . . . . . . . . . . . .

C#|---------------------------------------------------------------|
G#|o--------------------------------------------------------------|
E|---------------------------------------------------------------|
B|--4\3---------------------------4\3----------------------------|
F#|o-2\1-0---------------6p5-6p5---2\1-0---------------------0h1--|
B|--------2-0-0-0-0-0-0-6p5-6p5-0-------2-0-0-0-0-0-0-0h2h3------|
               . . . . .                     . . . . .

C#|-----------------------------------------|
G#|-----------------------------------------|
E|-----------------------------------------|
B|-4\3-------------------------------------|
F#|-2\1-0---2h5p2-3h6p3-4h7p4-3h6p3-4h7p4-5-|
B|-------2---------------------------------|


C#|----------first-ending-----------|-------second-ending-------------|
G#|--------------------------------o|---------------------------------|
E|---------------------------------|---------------------------------|
B|-4\3-------4\3-------------------|-4\3-------4\3-------------------|
F#|-2\1-0-2-0-2\1p0-----------0-1--o|-2\1-0-2-0-2\1-0-----------0-----|
B|-------2-0-------2p0-2-3-5-------|-------2-0-------2p0-2-3-5---2-0-|


C#|--------------------------------------------|
G#|--------------------------------------------|
E|--------------------------------------------|
B|--------------------------------------------|
F#|-2-2------------------------------------2-2-|
B|-2-2--3-3-3-3-3-3-2-2--5-0--3-3-3-3-3-3-2-2-|


C#|-----------------------------------------------|
G#|-----------------------------------------------|
E|-----------------------------------------------|
B|-----------------------------------------------|
F#|-2-2---------------------------------------2---|
B|-2-2--3-3-3-3-3-3-3-2-2--5-1---3-3-3-3-3-3-2---|


C#|------------------------------------------------|
G#|------------------------------------------------|
E|------------------------------------------------|
B|------------------------------------------------|
F#|-2-2---------------------------------------2-2--|
B|-2-2--3-3-3-3-3-3-3-2-2--5-1---3-3-3-3-3-3-2-2--|


C#|----------------------------------------------------------------|
G#|----------------------------------------------------------------|
E|----------------------------------------------------------------|
B|----------------------------------------------------------------|
F#|-2-2-------------------------1-1-1-1-1-1-1-1-1-1-1-1-1-1-1-1-1--|
B|-2-2--3-3-3-3-3-3-3-2-2--5-1-1-1-1-1-1-1-1-1-1-1-1-1-1-1-1-1-1--|
                                . . . . . . . . . . . . . . . . .

C#|--------------------------------------------------------------------|
G#|--------------------------------------------------------------------|
E|--------------------------------------------------------------------|
B|-4\3-0-------------------------4\3-0---------------------3-4\3-0----|
F#|-2\1-0---------------6p5-6p5---2\1-0-------------5h6-3h5-1-2\1-0----|
B|-------0-0-0-0-0-0-0-6p5-6p5-0-------0-0-0-0-0-0-5h6-3h5---------0--|
            . . . . . .                 . . . . . .

C#|---------------------------------|----------------------------|
G#|---------------------------------|----------------------------|
E|---------------------------------|----------------------------|
B|---------------------------------|-4\3-0-----4\3--------------|
F#|-2h5p2-3h6p3-4h7p4-3h6p3-4h7p4-5-|-2\1-0-2-0-2\1p0-2-0-2-3-5--|
B|---------------------------------|-------2-0-------2-0-2-3-5--|


C#|-----------------------------------------------------------------------|+
G#|-----------------------------------------------------------------------|
E|--7---7---7---7---10---10---10---10---6---6---6---6---7---7---7---7----|
B|----7---7---7---7----7----7----7----7---7---7---7---7---7---7---7---7--|
F#|-----------------------------------------------------------------------|
B|-----------------------------------------------------------------------|


C#|-----------------------------------------------------------------------|+
G#|-----------------------------------------------------------------------|
E|--7---7---7---7---10---10---10---10---6---6---6---6--------------------|
B|----7---7---7---7----7----7----7----7---7---7---7---7---1~~------------|
F#|--------------------------------------------------------1~~------------|
B|--------------------------------------------------------1~~------------|


C#|--------------------------------------------x2-|
G#|-----------------------------------------------|
E|-----------------------------------------------|
B|-2-2--3-3-3-3-3-3-2-2--5-1---3-3-3-3-3-3-2-2---| bass slide
F#|-----------------------------------------------|
B|-----------------------------------------------|
    . .  . . . . . . . .  . .   . . . . . . . .

C#|----------------------------------------------x3-|
G#|-------------------------------------------------|
E|-------------------------------------------------|
B|-------------------------------------------------|
F#|-------------------------------------------------|
B|-0-0--1-1-1-1-1-1-0-0--0-0---1-1-1-1-1-1-0-0-----|


C#|---------------------------------------------------------------|
G#|---------------------------------------------------------------|
E|---------------------------------------------------------------|
B|---------------------------------------------------------------|
F#|-------------------------------1-1-1-1-1-1-1-1-1-1-1-1-1-1-1---|
B|-0-0--1-1-1-1-1-1-0-0--0-0-1-1-1-1-1-1-1-1-1-1-1-1-1-1-1-1-1---|
                              . . . . . . . . . . . . . . . . .

C#|--------------------------------------------------------------------|
G#|--------------------------------------------------------------------|
E|--------------------------------------------------------------------|
B|-4\3-0-------------------------4\3-0---------------------3-4\3-0----|
F#|-2\1-0---------------6p5-6p5---2\1-0-------------5h6-3h5-1-2\1-0----|
B|-------0-0-0-0-0-0-0-6p5-6p5-0-------0-0-0-0-0-0-5h6-3h5---------0--|
            . . . . . .                 . . . . . .

C#|---------------------------------|----------------------------|
G#|---------------------------------|----------------------------|
E|---------------------------------|----------------------------|
B|---------------------------------|-4\3-0-----4\3--------------|
F#|-2h5p2-3h6p3-4h7p4-3h6p3-4h7p4-5-|-2\1-0-2-0-2\1p0-2-0-2-3-5--|
B|---------------------------------|-------2-0-------2-0-2-3-5--|


C#|-----------------------------------------------------------------------|+
G#|-----------------------------------------------------------------------|
E|--7---7---7---7---10---10---10---10---6---6---6---6---7---7---7---7----|
B|----7---7---7---7----7----7----7----7---7---7---7---7---7---7---7---7--|
F#|-----------------------------------------------------------------------|
B|-----------------------------------------------------------------------|


C#|-----------------------------------------------------------------------|+
G#|-----------------------------------------------------------------------|
E|--7---7---7---7---10---10---10---10---6---6---6---6--------------------|
B|----7---7---7---7----7----7----7----7---7---7---7---7---1~~------------|
F#|--------------------------------------------------------1~~------------|
B|--------------------------------------------------------1~~------------|


C#|--------------------------------------------------------------------x2-|
G#|-----------------------------------------------------------------------|
E|-----------------------------------------------------------------------|
B|-----------------------------------------------------------------------|
F#|---------------------------3-4--------------------------------2-1------|
B|-8\1-0-2-11-0-8\1-0-2-11-0-----6-5--8\1-0-2-11-0-8\1-0-2-11-0-----1-2--|


C#|--------------------------------------------------------------------x4-|
G#|-----------------------------------------------------------------------|
E|-----------------------------------------------------------------------|
B|---------------------------5-6--------------------------------4-3------|
F#|-8\1-0-2-11-0-8\1-0-2-11-0-3-4-6-5--8\1-0-2-11-0-8\1-0-2-11-0-2-1-1-2--|
B|-8\1-0-2-11-0-8\1-0-2-11-0-----6-5--8\1-0-2-11-0-8\1-0-2-11-0-----1-2--|
        . . .. .     . . .. .              . . .. .     . . .. .

C#|------------------------|---------------------------------x2-|
G#|------------------------|------------------------------------|
E|--------------------AHHHH------------------------------------|
B|-6-5------v--v--v-------|--------------------7\--------------|
F#|-4-3-3-4----------------|-0--3--0--8------7--5\-3--6---------|
B|-----3-4--0--0--0-------|-0--3--0--8------7-----3--6--0\/*---|


C#|-------------------------------------------------------|
G#|---------------onze|------------------------------------|
E|-------------------------------------------------------|
B|------------------------------7\-----------------------|
F#|-0--3--0--8--111111111111--7--5\-3--6------------------|
B|-0--3--0--8---8-8-8-8-8-8--7-----3--6--0-0-0-0-0-0-0---|
                 . . . . .                  . . . . . .

C#|--------------------------------------------------------|
G#|--------------------------------------------------------|
E|--------------------------------------------------------|
B|-------------------------------7\-----------------------|
F#|-0--3--0--8--111111111111---7--5\-3--6------------------|
B|-0--3--0--8---8-8-8-8-8-8-7-7-----3--6--------/19\------|
                 . . . . . . .

C#|-----------------------------------------------------------------------|
G#|-------------------------------9-8-------------------------------------|
E|-------------------------------x-x-------------------------------------|
B|-------------------------------6-5----------------------------4-3------|
F#|---------------------------3-4--------------------------------2-1-1-2--|
B|-8\1-0-2-11-0-8\1-0-2-11-0----------8\1-0-2-11-0-8\1-0-2-11-0-----1-2--|


C#|--------------------------------------------------------------------x2-|
G#|-------------------------------9-8-------------------------------------|
E|-------------------------------x-x-------------------------------------|
B|---------------------------5-6-6-5----------------------------4-3------|
F#|-8\1-0-2-11-0-8\1-0-2-11-0-3-4------8\1-0-2-11-0-8\1-0-2-11-0-2-1-1-2--|
B|-8\1-0-2-11-0-8\1-0-2-11-0----------8\1-0-2-11-0-8\1-0-2-11-0-----1-2--|
        . . .. .     . . .. .              . . .. .     . . .. .

C#|---------------------------------------------------------------|
G#|-------------------------------9-8-----------------------------|
E|-------------------------------x-x-----------------------------|
B|---------------------------5-6-6-5-----------------------------|
F#|-8\1-0-2-11-0-8\1-0-2-11-0-3-4------8\1-0-2-11-0-8\1-0-2-11-0--|
B|-8\1-0-2-11-0-8\1-0-2-11-0----------8\1-0-2-11-0-8\1-0-2-11-0--|
        . . .. .     . . .. .              . . .. .     . . ..

Clipes

Cifra Club Pro

Aproveite o Cifra Club com benefícios exclusivos e sem anúncios
7 dias grátis
Cifra Club Pro
Aproveite o Cifra Club com benefícios exclusivos e sem anúncios
7 dias grátis