The Nameless

Slipknot

Tom: G
Versão do clipe da música

Tuning: Drop B

Guitarra 1 part...

#1t1##1t2#C#|--------------------------------------------x2-|
G#|-----------------------------------------------|
E|-4-4--5-5-5-5-5-5-4-4--7-----5-5-5-5-5-5-4-4---|
B|-------------------------7---------------------|
F#|-----------------------------------------------|
B|-----------------------------------------------|
    . .  . . . . . . . .  . .   . . . . . . . .#/1t2##/1t1#

#2t1##2t2#C#|--------------------------------------------------------------|
G#|--------------------------------------------------------------|
E|-4-4--5-5-5-5-5-5-4-4--7--------------------------------------|
B|-------------------------0------------------------------------|
F#|---------------------------1-1-1-1-1-1-1-1-1-1-1-1-1-1-1-1-1--|
B|---------------------------1-1-1-1-1-1-1-1-1-1-1-1-1-1-1-1-1--|
    . .  . . . . . . . .      . . . . . . . . . . . . . . . . .#/2t2##/2t1#

#3t1##3t2#C#|---------------------------------------------------------------|
G#|o--------------------------------------------------------------|
E|---------------------------------------------------------------|
B|--4\3---------------------------4\3----------------------------|
F#|o-2\1-0---------------6p5-6p5---2\1-0---------------------0h1--|
B|--------2-0-0-0-0-0-0-6p5-6p5-0-------2-0-0-0-0-0-0-0h2h3------|
               . . . . .                     . . . . .#/3t2##/3t1#

#4t1##4t2#C#|-----------------------------------------|
G#|-----------------------------------------|
E|-----------------------------------------|
B|-4\3-----1h4p1-2h5p2-3h6p3-2h5p2-3h5p3-4-|
F#|-2\1-0-----------------------------------|
B|-------2---------------------------------|#/4t2##/4t1#


#5t1##5t2#C#|----------first-ending-----------|-------second-ending-------------|
G#|--------------------------------o|---------------------------------|
E|---------------------------------|---------------------------------|
B|-4\3-------4\3-------------------|-4\3-------4\3-------------------|
F#|-2\1-0-2-0-2\1p0-----------0-1--o|-2\1-0-2-0-2\1-0-----------0-----|
B|-------2-0-------2p0-2-3-5-------|-------2-0-------2p0-2-3-5---2-0-|#/5t2##/5t1#


#6t1##6t2#C#|--------------------------------------------|
G#|--------------------------------------------|
E|--------------------------------------------|
B|--------------------------------------------|
F#|-2-2------------------------------------2-2-|
B|-2-2--3-3-3-3-3-3-2-2--5-0--3-3-3-3-3-3-2-2-|#/6t2##/6t1#


#7t1##7t2#C#|-----------------------------------------------|
G#|-----------------------------------------------|
E|-----------------------------------------------|
B|-----------------------------------------------|
F#|-2-2---------------------------------------2---|
B|-2-2--3-3-3-3-3-3-3-2-2--5-1---3-3-3-3-3-3-2---|#/7t2##/7t1#


#8t1##8t2#C#|------------------------------------------------|
G#|------------------------------------------------|
E|------------------------------------------------|
B|------------------------------------------------|
F#|-2-2---------------------------------------2-2--|
B|-2-2--3-3-3-3-3-3-3-2-2--5-1---3-3-3-3-3-3-2-2--|#/8t2##/8t1#


#9t1##9t2#C#|----------------------------------------------------------------|
G#|----------------------------------------------------------------|
E|----------------------------------------------------------------|
B|----------------------------------------------------------------|
F#|-2-2-------------------------1-1-1-1-1-1-1-1-1-1-1-1-1-1-1-1-1--|
B|-2-2--3-3-3-3-3-3-3-2-2--5-1-1-1-1-1-1-1-1-1-1-1-1-1-1-1-1-1-1--|
                                . . . . . . . . . . . . . . . . .#/9t2##/9t1#

#10t1##10t2#C#|--------------------------------------------------------------------|
G#|--------------------------------------------------------------------|
E|--------------------------------------------------------------------|
B|-4\3-0-------------------------4\3-0---------------------3-4\3-0----|
F#|-2\1-0---------------6p5-6p5---2\1-0-------------5h6-3h5-1-2\1-0----|
B|-------0-0-0-0-0-0-0-6p5-6p5-0-------0-0-0-0-0-0-5h6-3h5---------0--|
            . . . . . .                 . . . . . .#/10t2##/10t1#

#11t1##11t2#C#|-----------------------------------|----------------------------|
G#|-----------------------------------|----------------------------|
E|-----------------------------------|----------------------------|
B|-1h4p1-2h5p2-3h6p3-2h5p2-3h5p3-4---|-4\3-0-----4\3--------------|
F#|-----------------------------------|-2\1-0-2-0-2\1p0-2-0-2-3-5--|
B|-----------------------------------|-------2-0-------2-0-2-3-5--|#/11t2##/11t1#


#12t1##12t2#C#|------5~~-----6~~--5~~----------|+
G#|----6-------6------5~~----------|
E|--7-------7--------6~~----------|
B|--------------------------------|
F#|--------------------------------|
B|--------------------------------|#/12t2##/12t1#

#13t1##13t2#C#|------5~~-----6~~--5~~----------|+
G#|----6-------6------5~~----------|
E|--7-------7--------6~~----------|
B|---------------------------1~~--|
F#|---------------------------1~~--|
B|---------------------------1~~--|#/13t2##/13t1#



#14t1##14t2#C#|--------------------------------------------x2-|
G#|-----------------------------------------------|
E|-4-4--5-5-5-5-5-5-4-4--7-----5-5-5-5-5-5-4-4---|
B|-------------------------7---------------------| bass slide
F#|-----------------------------------------------|
B|-----------------------------------------------|
    . .  . . . . . . . .  . .   . . . . . . . .#/14t2##/14t1#

#15t1##15t2#C#|----------------------------------------------x3-|
G#|-------------------------------------------------|
E|-------------------------------------------------|
B|-------------------------------------------------|
F#|-------------------------------------------------|
B|-0-0--1-1-1-1-1-1-0-0--0-0---1-1-1-1-1-1-0-0-----|#/15t2##/15t1#


#16t1##16t2#C#|---------------------------------------------------------------|
G#|---------------------------------------------------------------|
E|---------------------------------------------------------------|
B|---------------------------------------------------------------|
F#|-------------------------------1-1-1-1-1-1-1-1-1-1-1-1-1-1-1---|
B|-0-0--1-1-1-1-1-1-0-0--0-0-1-1-1-1-1-1-1-1-1-1-1-1-1-1-1-1-1---|
                              . . . . . . . . . . . . . . . . .#/16t2##/16t1#

#17t1##17t2#C#|--------------------------------------------------------------------|
G#|--------------------------------------------------------------------|
E|--------------------------------------------------------------------|
B|-4\3-0-------------------------4\3-0---------------------3-4\3-0----|
F#|-2\1-0---------------6p5-6p5---2\1-0-------------5h6-3h5-1-2\1-0----|
B|-------0-0-0-0-0-0-0-6p5-6p5-0-------0-0-0-0-0-0-5h6-3h5---------0--|
            . . . . . .                 . . . . . .#/17t2##/17t1#

#18t1##18t2#C#|-----------------------------------|----------------------------|
G#|-----------------------------------|----------------------------|
E|-----------------------------------|----------------------------|
B|-1h4p1-2h5p2-3h6p3-2h5p2-3h5p3-4---|-4\3-0-----4\3--------------|
F#|-----------------------------------|-2\1-0-2-0-2\1p0-2-0-2-3-5--|
B|-----------------------------------|-------2-0-------2-0-2-3-5--|#/18t2##/18t1#


#19t1##19t2#C#|------5~~-----6~~--5~~----------|+
G#|----6-------6------5~~----------|
E|--7-------7--------6~~----------|
B|--------------------------------|
F#|--------------------------------|
B|--------------------------------|#/19t2##/19t1#

#20t1##20t2#C#|------5~~-----6~~--5~~----------|+
G#|----6-------6------5~~----------|
E|--7-------7--------6~~----------|
B|---------------------------1~~--|
F#|---------------------------1~~--|
B|---------------------------1~~--|#/20t2##/20t1#


#21t1##21t2#C#|--------------------------------------------------------------------x2-|
G#|-----------------------------------------------------------------------|
E|-----------------------------------------------------------------------|
B|-----------------------------------------------------------------------|
F#|---------------------------3-4--------------------------------2-1------|
B|-8\1-0-2-11-0-8\1-0-2-11-0-----6-5--8\1-0-2-11-0-8\1-0-2-11-0-----1-2--|#/21t2##/21t1#


#22t1##22t2#C#|--------------------------------------------------------------------x4-|
G#|-----------------------------------------------------------------------|
E|-----------------------------------------------------------------------|
B|---------------------------5-6--------------------------------4-3------|
F#|-8\1-0-2-11-0-8\1-0-2-11-0-3-4-6-5--8\1-0-2-11-0-8\1-0-2-11-0-2-1-1-2--|
B|-8\1-0-2-11-0-8\1-0-2-11-0-----6-5--8\1-0-2-11-0-8\1-0-2-11-0-----1-2--|
        . . .. .     . . .. .              . . .. .     . . .. .#/22t2##/22t1#

#23t1##23t2#C#|-----------------------|-------------------------------------x2-|
G#|-----------------------|----------------------------------------|
E|--------------------AHHHH--------/12-10-10\---------------------|
B|-6-5------v--v--v------|-----------x--x--x------7\--------------|
F#|-4-3-3-4---------------|-0--3--0-/10--8--8\--7--5\-3--6---------|
B|-----3-4--0--0--0------|-0--3--0-------------7-----3--6--0\/*---|#/23t2##/23t1#


#24t1##24t2#C#|--------------------------------------------------------|
G#|---------------onze|-------------------------------------|
E|-------------------------------2--5--8------------------|
B|----------------------------------x--x------------------|
F#|-0--3--0--8--111111111111---7-----3--6------------------|
B|-0--3--0--8---8-8-8-8-8-8-8-7-----------0-0-0-0-0-0-0---|
                 . . . . . . .               . . . . . .#/24t2##/24t1#

#25t1##25t2#C#|--------------------------------------------------------|
G#|--------------------------------------------------------|
E|--------------------------------------------------------|
B|-------------------------------7\-----------------------|
F#|-0--3--0--8--111111111111---7--5\-3--6------------------|
B|-0--3--0--8---8-8-8-8-8-8-7-7-----3--6--------/19\------|
                 . . . . . . .#/25t2##/25t1#

#26t1##26t2#C#|-----------------------------------------------------------------------|
G#|-----------------------------------------------------------------------|
E|-----------------------------------------------------------------------|
B|-----------------------------------------------------------------------|
F#|---------------------------3-4--------------------------------2-1------|
B|-8\1-0-2-11-0-8\1-0-2-11-0-----6-5--8\1-0-2-11-0-8\1-0-2-11-0-----1-2--|#/26t2##/26t1#


#27t1##27t2#C#|--------------------------------------------------------------------x2-|
G#|-----------------------------------------------------------------------|
E|-----------------------------------------------------------------------|
B|---------------------------5-6--------------------------------4-3------|
F#|-8\1-0-2-11-0-8\1-0-2-11-0-3-4-6-5--8\1-0-2-11-0-8\1-0-2-11-0-2-1-1-2--|
B|-8\1-0-2-11-0-8\1-0-2-11-0-----6-5--8\1-0-2-11-0-8\1-0-2-11-0-----1-2--|#/27t2##/27t1#


#28t1##28t2#C#|---------------------------------------------------------------|
G#|---------------------------------------------------------------|
E|---------------------------------------------------------------|
B|---------------------------5-6---------------------------------|
F#|-8\1-0-2-11-0-8\1-0-2-11-0-3-4-6-5--8\1-0-2-11-0-8\1-0-2-11-0--|
B|-8\1-0-2-11-0-8\1-0-2-11-0-----6-5--8\1-0-2-11-0-8\1-0-2-11-0--|
        . . .. .     . . .. .              . . .. .     . . ..#/28t2##/28t1#

And you are finished!

~~~~~~~~~~~~~~~~~~~~~~~~~~~~~~~~~~~~~~~~~~~~~~~~~~~~~~~~~~~~~~~~~~~~~~~~~

Guitar 2 part:

#29t1##29t2#C#|--------------------------------------------x2-|
G#|-----------------------------------------------|
E|-----------------------------------------------|
B|-2-2--3-3-3-3-3-3-2-2--5-1---3-3-3-3-3-3-2-2---|
F#|-----------------------------------------------|
B|-----------------------------------------------|
    . .  . . . . . . . .  . .   . . . . . . . .#/29t2##/29t1#

#30t1##30t2#C#|--------------------------------------------------------------|
G#|--------------------------------------------------------------|
E|--------------------------------------------------------------|
B|-2-2--3-3-3-3-3-3-2-2--5p0------------------------------------|
F#|---------------------------1-1-1-1-1-1-1-1-1-1-1-1-1-1-1-1-1--|
B|---------------------------1-1-1-1-1-1-1-1-1-1-1-1-1-1-1-1-1--|
    . .  . . . . . . . .      . . . . . . . . . . . . . . . . .#/30t2##/30t1#

#31t1##31t2#C#|---------------------------------------------------------------|
G#|o--------------------------------------------------------------|
E|---------------------------------------------------------------|
B|--4\3---------------------------4\3----------------------------|
F#|o-2\1-0---------------6p5-6p5---2\1-0---------------------0h1--|
B|--------2-0-0-0-0-0-0-6p5-6p5-0-------2-0-0-0-0-0-0-0h2h3------|
               . . . . .                     . . . . .#/31t2##/31t1#

#32t1##32t2#C#|-----------------------------------------|
G#|-----------------------------------------|
E|-----------------------------------------|
B|-4\3-------------------------------------|
F#|-2\1-0---2h5p2-3h6p3-4h7p4-3h6p3-4h7p4-5-|
B|-------2---------------------------------|#/32t2##/32t1#


#33t1##33t2#C#|----------first-ending-----------|-------second-ending-------------|
G#|--------------------------------o|---------------------------------|
E|---------------------------------|---------------------------------|
B|-4\3-------4\3-------------------|-4\3-------4\3-------------------|
F#|-2\1-0-2-0-2\1p0-----------0-1--o|-2\1-0-2-0-2\1-0-----------0-----|
B|-------2-0-------2p0-2-3-5-------|-------2-0-------2p0-2-3-5---2-0-|#/33t2##/33t1#


#34t1##34t2#C#|--------------------------------------------|
G#|--------------------------------------------|
E|--------------------------------------------|
B|--------------------------------------------|
F#|-2-2------------------------------------2-2-|
B|-2-2--3-3-3-3-3-3-2-2--5-0--3-3-3-3-3-3-2-2-|#/34t2##/34t1#


#35t1##35t2#C#|-----------------------------------------------|
G#|-----------------------------------------------|
E|-----------------------------------------------|
B|-----------------------------------------------|
F#|-2-2---------------------------------------2---|
B|-2-2--3-3-3-3-3-3-3-2-2--5-1---3-3-3-3-3-3-2---|#/35t2##/35t1#


#36t1##36t2#C#|------------------------------------------------|
G#|------------------------------------------------|
E|------------------------------------------------|
B|------------------------------------------------|
F#|-2-2---------------------------------------2-2--|
B|-2-2--3-3-3-3-3-3-3-2-2--5-1---3-3-3-3-3-3-2-2--|#/36t2##/36t1#


#37t1##37t2#C#|----------------------------------------------------------------|
G#|----------------------------------------------------------------|
E|----------------------------------------------------------------|
B|----------------------------------------------------------------|
F#|-2-2-------------------------1-1-1-1-1-1-1-1-1-1-1-1-1-1-1-1-1--|
B|-2-2--3-3-3-3-3-3-3-2-2--5-1-1-1-1-1-1-1-1-1-1-1-1-1-1-1-1-1-1--|
                                . . . . . . . . . . . . . . . . .#/37t2##/37t1#

#38t1##38t2#C#|--------------------------------------------------------------------|
G#|--------------------------------------------------------------------|
E|--------------------------------------------------------------------|
B|-4\3-0-------------------------4\3-0---------------------3-4\3-0----|
F#|-2\1-0---------------6p5-6p5---2\1-0-------------5h6-3h5-1-2\1-0----|
B|-------0-0-0-0-0-0-0-6p5-6p5-0-------0-0-0-0-0-0-5h6-3h5---------0--|
            . . . . . .                 . . . . . .#/38t2##/38t1#

#39t1##39t2#C#|---------------------------------|----------------------------|
G#|---------------------------------|----------------------------|
E|---------------------------------|----------------------------|
B|---------------------------------|-4\3-0-----4\3--------------|
F#|-2h5p2-3h6p3-4h7p4-3h6p3-4h7p4-5-|-2\1-0-2-0-2\1p0-2-0-2-3-5--|
B|---------------------------------|-------2-0-------2-0-2-3-5--|#/39t2##/39t1#


#40t1##40t2#C#|-----------------------------------------------------------------------|+
G#|-----------------------------------------------------------------------|
E|--7---7---7---7---10---10---10---10---6---6---6---6---7---7---7---7----|
B|----7---7---7---7----7----7----7----7---7---7---7---7---7---7---7---7--|
F#|-----------------------------------------------------------------------|
B|-----------------------------------------------------------------------|#/40t2##/40t1#


#41t1##41t2#C#|-----------------------------------------------------------------------|+
G#|-----------------------------------------------------------------------|
E|--7---7---7---7---10---10---10---10---6---6---6---6--------------------|
B|----7---7---7---7----7----7----7----7---7---7---7---7---1~~------------|
F#|--------------------------------------------------------1~~------------|
B|--------------------------------------------------------1~~------------|#/41t2##/41t1#



#42t1##42t2#C#|--------------------------------------------x2-|
G#|-----------------------------------------------|
E|-----------------------------------------------|
B|-2-2--3-3-3-3-3-3-2-2--5-1---3-3-3-3-3-3-2-2---| bass slide
F#|-----------------------------------------------|
B|-----------------------------------------------|
    . .  . . . . . . . .  . .   . . . . . . . .#/42t2##/42t1#

#43t1##43t2#C#|----------------------------------------------x3-|
G#|-------------------------------------------------|
E|-------------------------------------------------|
B|-------------------------------------------------|
F#|-------------------------------------------------|
B|-0-0--1-1-1-1-1-1-0-0--0-0---1-1-1-1-1-1-0-0-----|#/43t2##/43t1#


#44t1##44t2#C#|---------------------------------------------------------------|
G#|---------------------------------------------------------------|
E|---------------------------------------------------------------|
B|---------------------------------------------------------------|
F#|-------------------------------1-1-1-1-1-1-1-1-1-1-1-1-1-1-1---|
B|-0-0--1-1-1-1-1-1-0-0--0-0-1-1-1-1-1-1-1-1-1-1-1-1-1-1-1-1-1---|
                              . . . . . . . . . . . . . . . . .#/44t2##/44t1#

#45t1##45t2#C#|--------------------------------------------------------------------|
G#|--------------------------------------------------------------------|
E|--------------------------------------------------------------------|
B|-4\3-0-------------------------4\3-0---------------------3-4\3-0----|
F#|-2\1-0---------------6p5-6p5---2\1-0-------------5h6-3h5-1-2\1-0----|
B|-------0-0-0-0-0-0-0-6p5-6p5-0-------0-0-0-0-0-0-5h6-3h5---------0--|
            . . . . . .                 . . . . . .#/45t2##/45t1#

#46t1##46t2#C#|---------------------------------|----------------------------|
G#|---------------------------------|----------------------------|
E|---------------------------------|----------------------------|
B|---------------------------------|-4\3-0-----4\3--------------|
F#|-2h5p2-3h6p3-4h7p4-3h6p3-4h7p4-5-|-2\1-0-2-0-2\1p0-2-0-2-3-5--|
B|---------------------------------|-------2-0-------2-0-2-3-5--|#/46t2##/46t1#



#47t1##47t2#C#|-----------------------------------------------------------------------|+
G#|-----------------------------------------------------------------------|
E|--7---7---7---7---10---10---10---10---6---6---6---6---7---7---7---7----|
B|----7---7---7---7----7----7----7----7---7---7---7---7---7---7---7---7--|
F#|-----------------------------------------------------------------------|
B|-----------------------------------------------------------------------|#/47t2##/47t1#


#48t1##48t2#C#|-----------------------------------------------------------------------|+
G#|-----------------------------------------------------------------------|
E|--7---7---7---7---10---10---10---10---6---6---6---6--------------------|
B|----7---7---7---7----7----7----7----7---7---7---7---7---1~~------------|
F#|--------------------------------------------------------1~~------------|
B|--------------------------------------------------------1~~------------|#/48t2##/48t1#


#49t1##49t2#C#|--------------------------------------------------------------------x2-|
G#|-----------------------------------------------------------------------|
E|-----------------------------------------------------------------------|
B|-----------------------------------------------------------------------|
F#|---------------------------3-4--------------------------------2-1------|
B|-8\1-0-2-11-0-8\1-0-2-11-0-----6-5--8\1-0-2-11-0-8\1-0-2-11-0-----1-2--|#/49t2##/49t1#


#50t1##50t2#C#|--------------------------------------------------------------------x4-|
G#|-----------------------------------------------------------------------|
E|-----------------------------------------------------------------------|
B|---------------------------5-6--------------------------------4-3------|
F#|-8\1-0-2-11-0-8\1-0-2-11-0-3-4-6-5--8\1-0-2-11-0-8\1-0-2-11-0-2-1-1-2--|
B|-8\1-0-2-11-0-8\1-0-2-11-0-----6-5--8\1-0-2-11-0-8\1-0-2-11-0-----1-2--|
        . . .. .     . . .. .              . . .. .     . . .. .#/50t2##/50t1#

#51t1##51t2#C#|------------------------|---------------------------------x2-|
G#|------------------------|------------------------------------|
E|--------------------AHHHH------------------------------------|
B|-6-5------v--v--v-------|--------------------7\--------------|
F#|-4-3-3-4----------------|-0--3--0--8------7--5\-3--6---------|
B|-----3-4--0--0--0-------|-0--3--0--8------7-----3--6--0\/*---|#/51t2##/51t1#


#52t1##52t2#C#|-------------------------------------------------------|
G#|---------------onze|------------------------------------|
E|-------------------------------------------------------|
B|------------------------------7\-----------------------|
F#|-0--3--0--8--111111111111--7--5\-3--6------------------|
B|-0--3--0--8---8-8-8-8-8-8--7-----3--6--0-0-0-0-0-0-0---|
                 . . . . .                  . . . . . .#/52t2##/52t1#

#53t1##53t2#C#|--------------------------------------------------------|
G#|--------------------------------------------------------|
E|--------------------------------------------------------|
B|-------------------------------7\-----------------------|
F#|-0--3--0--8--111111111111---7--5\-3--6------------------|
B|-0--3--0--8---8-8-8-8-8-8-7-7-----3--6--------/19\------|
                 . . . . . . .#/53t2##/53t1#

#54t1##54t2#C#|-----------------------------------------------------------------------|
G#|-------------------------------9-8-------------------------------------|
E|-------------------------------x-x-------------------------------------|
B|-------------------------------6-5----------------------------4-3------|
F#|---------------------------3-4--------------------------------2-1-1-2--|
B|-8\1-0-2-11-0-8\1-0-2-11-0----------8\1-0-2-11-0-8\1-0-2-11-0-----1-2--|#/54t2##/54t1#


#55t1##55t2#C#|--------------------------------------------------------------------x2-|
G#|-------------------------------9-8-------------------------------------|
E|-------------------------------x-x-------------------------------------|
B|---------------------------5-6-6-5----------------------------4-3------|
F#|-8\1-0-2-11-0-8\1-0-2-11-0-3-4------8\1-0-2-11-0-8\1-0-2-11-0-2-1-1-2--|
B|-8\1-0-2-11-0-8\1-0-2-11-0----------8\1-0-2-11-0-8\1-0-2-11-0-----1-2--|
        . . .. .     . . .. .              . . .. .     . . .. .#/55t2##/55t1#

#56t1##56t2#C#|---------------------------------------------------------------|
G#|-------------------------------9-8-----------------------------|
E|-------------------------------x-x-----------------------------|
B|---------------------------5-6-6-5-----------------------------|
F#|-8\1-0-2-11-0-8\1-0-2-11-0-3-4------8\1-0-2-11-0-8\1-0-2-11-0--|
B|-8\1-0-2-11-0-8\1-0-2-11-0----------8\1-0-2-11-0-8\1-0-2-11-0--|
        . . .. .     . . .. .              . . .. .     . . ..#/56t2##/56t1#
Composição: Colaboração e revisão: gustavo marquesAndré boto