busca

The Negative One

Slipknot

Tom: B
Afinação: B F# B E G# C#

-------------------------------------------------------|
-------------------------------------------------------|
-------------------------------------------------------|
----__-----__----__------------__-----__----__---------|
--^-)(---^-)(--^-)(---^------^-)(---^-)(--^-)(--^---^--|
-0-1----0-1---0-1----0-1-0--0-1----0-1---0-1---0-1-0-1-|

-------------------------------------------------------|
-------------------------------------------------------|
-------------------------------------------------------|
----__-----__----__------------__-----__---------------|
--^-)(---^-)(--^-)(---^------^-)(---^-)(--^------------|
-0-1----0-1---0-1----0-1-0--0-1----0-1---0-1-0-0-------|
                                             * *

0:36
-------------------------------------------------------|
-------------------------------------------------------|
-------------------------------------------------------|
----__-----__----__------------__-----__----__---------|
--^-)(---^-)(--^-)(---^------^-)(---^-)(--^-)(--^---^--|
-0-1----0-1---0-1----0-1-0--0-1----0-1---0-1---0-1-0-1-|

-------------------------------------------------------|
-------------------------------------------------------|
-------------------------------------------------------|
----__-----__----__------------__-----__----__---------|
--^-)(---^-)(--^-)(---^------^-)(---^-)(--^-)(--^---^--|
-0-1----0-1---0-1----0-1-0--0-1----0-1---0-1---0-1-0-1-|

-------------------------------------------------------|
-------------------------------------------------------|
-------------------------------------------------------|
----__-----__----__------------__-----__----__---------|
--^-)(---^-)(--^-)(---^------^-)(---^-)(--^-)(--^---^--|
-0-1----0-1---0-1----0-1-0--0-1----0-1---0-1---0-1-0-1-|

-------------------------------------------------------|
-------------------------------------------------------|
-------------------------------------------------------|
----__-----__----__------------__-----__----__---------|
--^-)(---^-)(--^-)(---^------^-)(---^-)(--^-)(--^---^--|
-0-1----0-1---0-1----0-1-0--0-1----0-1---0-1---0-1-0-1-|

-----------------------------------------------------------|
-----------------------------------------------------------|
-----------------------------------------------------------|
----__-----__----__------------__-----__----__-------------|
--^-)(---^-)(--^-)(---^------^-)(---^-)(--^-)(--^---^---^--|
-0-1----0-1---0-1----0-1-0--0-1----0-1---0-1---0-1-0-1-0-1-|


1:03
------------------------------------------------------------|
------------------------------------------------------------|
------------------------------------------------------------|
---^---^-----------^---^-------------------^------^---^-----|
--0-1-0-1-0---0-1-0-1-0-1-0---0-1-3/4\3-1-3-1-0-1-0-1-0-1-0-|
--0-1-0-1-0---0-1-0-1-0-1-0---0-1-3/4\3-1-3-1-0-1-0-1-0-1-0-|

---------------------------------------------------------------|
---------------------------------------------------------------|
---------------------------------------------------------------|
------^---^-----------^---^-------------------^------^---^-----|
-0-1-0-1-0-1-0---0-1-0-1-0-1-0---0-1-3/4\3-1-3-1-0-1-0-1-0-1-0-|
-0-1-0-1-0-1-0---0-1-0-1-0-1-0---0-1-3/4\3-1-3-1-0-1-0-1-0-1-0-|

L
-----------------------------------------------------------------------------------------|
-----------------------------------------------------------------------------------------|
-----------------------------------------------------------------------------------------|
--------^-----^---------------^-----^---------------------------^-----------^-----^------|
12-13-12-13-12-13-12--12-13-12-13-12-13-12--12-13-15/16\15-13-15-13-12-13-12-13-12-13-12-|
12-13-12-13-12-13-12--12-13-12-13-12-13-12--12-13-15/16\15-13-15-13-12-13-12-13-12-13-12-|

R
---------------------------------------------------------------|
---------------------------------------------------------------|
---------------------------------------------------------------|
------^---^-----------^---^-------------------^------^---^-----|
-0-1-0-1-0-1-0---0-1-0-1-0-1-0---0-1-3/4\3\1-3-1-0-1-0-1-0-1-0-|
-0-1-0-1-0-1-0---0-1-0-1-0-1-0---0-1-3/4\3\1-3-1-0-1-0-1-0-1-0-|

L
--------------------------------------------------------------------------------------------------|
--------------------------------------------------------------------------------------------------|
--------^-----^---------------^-----^---------------------------^-----------------------^---------|
12-13-12-13-12-13-12--12-13-12-13-12-13-12--12-13-15/16\15-13-15-13-12-13-15/16\15-13-15-13-12-13-|
12-13-12-13-12-13-12--12-13-12-13-12-13-12--12-13-15/16\15-13-15-13-12-13-15/16\15-13-15-13-12-13-|
12-13-12-13-12-13-12--12-13-12-13-12-13-12--12-13-15/16\15-13-15-13-12-13-15/16\15-13-15-13-12-13-|

R
-------------------------------------------------------------------------|
-------------------------------------------------------------------------|
-------------------------------------------------------------------------|
------^---^-----------^---^-------------------^---------------^----------|
-0-1-0-1-0-1-0---0-1-0-1-0-1-0---0-1-3/4\3-1-3-1-0-1-3/4\3-1-3-1-0-1-----|
-0-1-0-1-0-1-0---0-1-0-1-0-1-0---0-1-3/4\3-1-3-1-0-1-3/4\3-1-3-1-0-1-----|

1:21
--------------------------------------------------------------------|
--------------------------------------------------------------------|
-------------------------------------------8-8-8-8-8-7-7-7-7-3-3-3--|
-------------------------------------------X-X-X-X-X-X-X-X-X-x-x-x--|
----------------------------------------0--6-6-6-6-6-5-5-5-5-1-1-1--|
-6~\-0-5~--\-0-6-6-8-5~--\-0-6~-\-0-5~--0---------------------------|

--------------------------------------------------------------------|
--------------------------------------------------------------------|
-------------------------------------------8-8-8-8-8-7-7-7-7-3-3-3--|
-------------------------------------------X-X-X-X-X-X-X-X-X-x-x-x--|
----------------------------------------0--6-6-6-6-6-5-5-5-5-1-1-1--|
-6~\-0-5~--\-0-6-6-8-5~--\-0-6~-\-0-5~--0---------------------------|

L
----------------------------|
----------------------------|
----------------------------|
----------------------------|
--^---^-----------^---^-----|
-0-1-0-1-0---0-1-0-1-0-1-0--|

1:41

B
------------------------------------------------------------|
------------------------------------------------------------|
------------------------------------------------------------|
---^---^-----------^---^-------------------^-------^---^----|
--0-1-0-1-0---0-1-0-1-0-1-0---0-1-3/4\3-1-3-1-0-1-0-1-0-1-0-|
--0-1-0-1-0---0-1-0-1-0-1-0---0-1-3/4\3-1-3-1-0-1-0-1-0-1-0-|

---------------------------------------------------------------|
---------------------------------------------------------------|
---------------------------------------------------------------|
------^---^-----------^---^-------------------^-------^---^----|
-0-1-0-1-0-1-0---0-1-0-1-0-1-0---0-1-3/4\3\1-3-1-0-1-0-1-0-1-0-|
-0-1-0-1-0-1-0---0-1-0-1-0-1-0---0-1-3/4\3\1-3-1-0-1-0-1-0-1-0-|

L
-----------------------------------------------------------------------------------------|
-----------------------------------------------------------------------------------------|
-----------------------------------------------------------------------------------------|
----------------------------------------------------------------^-----------^-----^------|
12-13-12-13-12-13-12--12-13-12-13-12-13-12--12-13-15/16\15-13-15-13-12-13-12-13-12-13-12-|
12-13-12-13-12-13-12--12-13-12-13-12-13-12--12-13-15/16\15-13-15-13-12-13-12-13-12-13-12-|

R
---------------------------------------------------------------|
---------------------------------------------------------------|
---------------------------------------------------------------|
------^---^-----------^---^-------------------^-------^---^----|
-0-1-0-1-0-1-0---0-1-0-1-0-1-0---0-1-3/4\3-1-3-1-0-1-0-1-0-1-0-|
-0-1-0-1-0-1-0---0-1-0-1-0-1-0---0-1-3/4\3-1-3-1-0-1-0-1-0-1-0-|

L
--------------------------------------------------------------------------------------------------|
--------------------------------------------------------------------------------------------------|
--------------------------------------------------------------------------------------------------|
--------------------------------------------------------------------------------------------------|
--------^-----^---------------^-----^---------------------------^-----------------------^---------|
12-13-12-13-12-13-12--12-13-12-13-12-13-12--12-13-15/16\15-13-15-13-12-13-15/16\15-13-15-13-12-13-|
12-13-12-13-12-13-12--12-13-12-13-12-13-12--12-13-15/16\15-13-15-13-12-13-15/16\15-13-15-13-12-13-|

R
-------------------------------------------------------------------------|
-------------------------------------------------------------------------|
-------------------------------------------------------------------------|
------^---^-----------^---^-------------------^---------------^----------|
-0-1-0-1-0-1-0---0-1-0-1-0-1-0---0-1-3/4\3-1-3-1-0-1-3/4\3-1-3-1-0-1-----|
-0-1-0-1-0-1-0---0-1-0-1-0-1-0---0-1-3/4\3-1-3-1-0-1-3/4\3-1-3-1-0-1-----|

1:58
--------------------------------------------------------------------|
--------------------------------------------------------------------|
-------------------------------------------8-8-8-8-8-7-7-7-7-3-3-3--|
-------------------------------------------X-X-X-X-X-X-X-X-X-x-x-x--|
----------------------------------------0--6-6-6-6-6-5-5-5-5-1-1-1--|
-6~\-0-5~--\-0-6-6-8-5~--\-0-6~-\-0-5~--0---------------------------|

--------------------------------------------------------------------|
--------------------------------------------------------------------|
-------------------------------------------8-8-8-8-8-7-7-7-7--------|
-------------------------------------------X-X-X-X-X-X-X-X-X-7-7-7--|
----------------------------------------0--6-6-6-6-6-5-5-5-5-X-X-X--|
-6~\-0-5~--\-0-6-6-8-5~--\-0-6~-\-0-5~--0--------------------7-7-7--|

L
----------------------------------------------------------------------------|
----------------------------------------------------------------------------|
----8-8-8-8-8-7-7-7-7-14-14-14-----8-8-8-8-8-7-7-7-7-17-17-17-19--17-14-14--|
----X-X-X-X-X-X-X-X-X--X--X--X-----X-X-X-X-X-X-X-X-X--X--X--X--X--X--X--X---|
-0--6-6-6-6-6-5-5-5-5-12-12-12--0--6-6-6-6-6-5-5-5-5-15-15-15-17~-15\12-12~-|
-0------------------------------0-------------------------------------------|

R
--------------------------------------------------------------------------|
--------------------------------------------------------------------------|
----8-8-8-8-8-7-7-7-7-14-14-14-----8-8-8-8-8-7-7-7-7----------------------|
----X-X-X-X-X-X-X-X-X--X--X--X-----X-X-X-X-X-X-X-X-X-10-10-10-12~-10\7-7--|
-0--6-6-6-6-6-5-5-5-5-12-12-12--0--6-6-6-6-6-5-5-5-5--X--X--X--X---X-X-X--|
-0------------------------------0--------------------10-10-10-12~-10\7-7~-|

2;23
-------------------------------------------------------------|
-------------------------------------------------------------|
---_-----7-8----8-8-8-8-7-7-7----_-----7-8---10101010-7-7-7--|
--/ \----5-6----X-X-X-X-X-X-X---/ \----5-6----X-X-X-X-X-X-X--|
-6-5-0-6-5/6----6-6-6-6-5-5-5--6-5-0-6-5/6----8-8-8-8-5-5-5--|
-6-5-0-6-----0-----------------6-5-0-6-----0-----------------|

----------------------------------------------------------------|
----------------------------------------------------------------|
---_-----7-8----8-8-8-8-7-7-7-----------------------------------|
--/ \----5-6----X-X-X-X-X-X-X--------------------------11111111-|
-6-5-0-6-5/6----6-6-6-6-5-5-5---------------------------X-X-X-X-|
-6-5-0-6-----0-----------------8-8-8-8-8-8-7-7-7-7-7-7-11111111-|

-------------------------------------------------------------|
-------------------------------------------------------------|
---_-----7-8----8-8-8-8-7-7-7----_-----7-8---10101010-7-7-7--|
--/ \----5-6----X-X-X-X-X-X-X---/ \----5-6----X-X-X-X-X-X-X--|
-6-5-0-6-5/6----6-6-6-6-5-5-5--6-5-0-6-5/6----8-8-8-8-5-5-5--|
-6-5-0-6-----0-----------------6-5-0-6-----0-----------------|

---------------------------------------------------------------|
---------------------------------------------------------------|
---_-----7-8----8-8-8-8-7-7-7----------------------------------|
--/ \----5-6----X-X-X-X-X-X-X----------------------------------|
-6-5-0-6-5/6----6-6-6-6-5-5-5----------------------------------|
-6-5-0-6-----0-----------------8-8-8-8-8-8-7-7-7-7-7-7-1-1-1-1-|

2:41

L
----------------------------------------------------|
----------------------------------------------------|
----------------------------------------------------|
----__-----__----__---------__-----__----__---------|
--^-)(---^-)(--^-)(-------^-)(---^-)(--^-)(--^---^--|
-0-1----0-1---0-1-----0--0-1----0-1---0-1---0-1-0-1-|

B
-------------------------------------------------------|
-------------------------------------------------------|
-------------------------------------------------------|
----__-----__----__------------__-----__----__---------|
--^-)(---^-)(--^-)(---^------^-)(---^-)(--^-)(--^---^--|
-0-1----0-1---0-1----0-1-0--0-1----0-1---0-1---0-1-0-1-|

-------------------------------------------------------|
-------------------------------------------------------|
-------------------------------------------------------|
----__-----__----__------------__-----__----__---------|
--^-)(---^-)(--^-)(---^------^-)(---^-)(--^-)(--^---^--|
-0-1----0-1---0-1----0-1-0--0-1----0-1---0-1---0-1-0-1-|

-------------------------------------------------------|
-------------------------------------------------------|
-------------------------------------------------------|
----__-----__----__------------__-----__----__---------|
--^-)(---^-)(--^-)(---^------^-)(---^-)(--^-)(--^---^--|
-0-1----0-1---0-1----0-1-0--0-1----0-1---0-1---0-1-0-1-|

2:58 USE 2 FINGERS
-------------------------------------------------------|
-------------------------------------------------------|
----__-----__----__------------__-----__----__---------|
--^-)(---^-)(--^-)(---^------^-)(---^-)(--^-)(--^---^--|
-0-1----0-1---0-1----0-1-0--0-1----0-1---0-1---0-1-0-1-|
-0-1----0-1---0-1----0-1-0--0-1----0-1---0-1---0-1-0-1-|

----------------------------------------------------------|
----------------------------------------------------------|
----__-----__----__------------__-----__----__------------|
--^-)(---^-)(--^-)(---^------^-)(---^-)(--^-)(--^---^---^-|
-0-1----0-1---0-1----0-1-0--0-1----0-1---0-1---0-1-0-1-0-1|
-0-1----0-1---0-1----0-1-0--0-1----0-1---0-1---0-1-0-1-0-1|

3:07
-------------------------------------------------------------------------------|
-------------------------------------------------------------------------------|
-------------------------------------------------------------------------------|
---------------_-------------------_-------------------_-------------------_---|
--------------/ \-----------------/ \-----------------/ \-----------------/ \--|
-0-1-3-4-3-1-3-1-0---0-1-3-4-3-1-3-1-0---0-1-3-4-3-1-3-1-0---0-1-3-4-3-1-3-1-0-|
 * * * * * *         * * * * * *         * * * * * *         * * * * * * 

---------------------------------------------------------------------------|
---------------------------------------------------------------------------|
---------------------------------------------------------------------------|
---------------_-------------------_-------------------_-------------------|
--------------/ \-----------------/ \-----------------/ \----------------0-|
-0-3-5-6-5-3-5-3-0---0-3-5-6-5-3-5-3-0---0-3-5-6-5-3-5-3-0---0-3-5-6-5-3-0-|
 * * * * * *         * * * * * *         * * * * * *         * * * * * * 
          
-------------------------------------------------------------------------------|
-------------------------------------------------------------------------------|
-------------------------------------------------------------------------------|
---------------_-------------------_-------------------_-------------------_---|
--------------/ \-----------------/ \-----------------/ \-----------------/ \--|
-0-1-3-4-3-1-3-1-0---0-1-3-4-3-1-3-1-0---0-1-3-4-3-1-3-1-0---0-1-3-4-3-1-3-1-0-|
 * * * * * *         * * * * * *         * * * * * *         * * * * * * 

------------------------------------------------------------------------------|
------------------------------------------------------------------------------|
------------------------------------------------------------------------------|
---------------_-------------------_-------------------_-------------------_--|
--------------/ \-----------------/ \-----------------/ \-----------------/ \-|
-0-3-5-6-5-3-5-3-0---0-3-5-6-5-3-5-3-0---0-3-5-6-5-3-5-3-0---0-3-5-6-5-3-5-3-0|
 * * * * * *         * * * * * *         * * * * * *         * * * * * * 

--------------------------------------------------------------------|
--------------------------------------------------------------------|
--------------------------------------------------------------------|
-----------------77778888-------------------------------------------|
---------66665555--------66665555-----------------------------------|
11110000--------------------------0000111133335555666655553333////--|

L
-------------------------------------------------------------------|
-------------------------------------------------------------------|
-------------------------------------------------------------------|
-----------------15151515------------------------15151515----------|
-1313131312121212--------131313131212121213131313--------13131313--|
-------------------------------------------------------------------|

R
-----------------------------------------------------------|
-----------------------------------------------------------|
-----------------------------------------------------------|
-----------------------------------------------------------|
----------------12121212------------------------12121212---|
1313131312121212--------131313131212121213131313--------13\|

------------*+1OCTAVE-----|
--------------------------|
--------------------------|
--------------------------|
-1--0--1--0--1--0--1--0---|
-1--0--1--0--1--0--1--0---|
 *  *  *  *  *  *  *  *

3:34
-----------------------------------------------------------|
-----------------------------------------------------------|
-----------------------------------------------------------|
------------------^---^--------------------------^---^-----|
-1-0-0-1-4-1-0-1-0-1-0-1-0--0-1-0-1-0-1-4-1-0-1-0-1-0-1-0--|
-1-0-0-1-4-1-0-1-0-1-0-1-0--0-1-0-1-0-1-4-1-0-1-0-1-0-1-0--|
 * * * * * * * *            * * * * * * * * * * 

---------------------------------------------------------------|
---------------------------------------------------------------|
---------------------------------------------------------------|
----------------------^---^--------------------------^---^-----|
-0-1-0-1-0-1-4-1-0-1-0-1-0-1-0--0-1-0-1-0-1-4-1-0-1-0-1-0-1-0--|
-0-1-0-1-0-1-4-1-0-1-0-1-0-1-0--0-1-0-1-0-1-4-1-0-1-0-1-0-1-0--|
 * * * * * * * * * *            * * * * * * * * * *

---------------------------------------------------------------|
---------------------------------------------------------------|
---------------------------------------------------------------|
----------------------^---^--------------------------^---^-----|
-0-1-0-1-0-1-4-1-0-1-0-1-0-1-0--0-1-0-1-0-1-4-1-0-1-0-1-0-1-0--|
-0-1-0-1-0-1-4-1-0-1-0-1-0-1-0--0-1-0-1-0-1-4-1-0-1-0-1-0-1-0--|
 * * * * * * * * * *            * * * * * * * * * *

---------------------------------------------------------------|
---------------------------------------------------------------|
---------------------------------------------------------------|
----------------------^---^--------------------------^---^-----|
-0-1-0-1-0-1-4-1-0-1-0-1-0-1-0--0-1-0-1-0-1-4-1-0-1-0-1-0-1-0--|
-0-1-0-1-0-1-4-1-0-1-0-1-0-1-0--0-1-0-1-0-1-4-1-0-1-0-1-0-1-0--|
 * * * * * * * * * *            * * * * * * * * * *

--------------------------------------------------------------|
--------------------------------------------------------------|
--------------------------------------------------------------|
----------------------^---^--------------------------^---^----|
-0-3-5-6-5-6-8-6-5-6-5-6-5-6-5--0-3-5-6-5-6-8-6-5-6-5-6-5-6-5-|
-0-3-5-6-5-6-8-6-5-6-5-6-5-6-5--0-3-5-6-5-6-8-6-5-6-5-6-5-6-5-|
 * * * * * * * * * *            * * * * * * * * * *

--------------------------------------------------------------|
--------------------------------------------------------------|
--------------------------------------------------------------|
----------------------^---^-----------------------------------|
-0-3-5-6-5-6-8-6-5-6-5-6-5-6-5--0-3-5-6-5-6-8-6-5-6-5-6-5-6-5-|
-0-3-5-6-5-6-8-6-5-6-5-6-5-6-5--0-3-5-6-5-6-8-6-5-6-5-6-5-6-5-|
 * * * * * * * * * *            * * * * * * * * * * * * * *

4:00
--------------------------------------------------------------------|
--------------------------------------------------------------------|
-------------------------------------------8-8-8-8-8-7-7-7-7-3-3-3--|
-------------------------------------------X-X-X-X-X-X-X-X-X-x-x-x--|
----------------------------------------0--6-6-6-6-6-5-5-5-5-1-1-1--|
-6~\-0-5~--\-0-6-6-8-5~--\-0-6~-\-0-5~--0---------------------------|

--------------------------------------------------------------------|
--------------------------------------------------------------------|
-------------------------------------------8-8-8-8-8-7-7-7-7--------|
-------------------------------------------X-X-X-X-X-X-X-X-X-7-7-7--|
----------------------------------------0--6-6-6-6-6-5-5-5-5-X-X-X--|
-6~\-0-5~--\-0-6-6-8-5~--\-0-6~-\-0-5~--0--------------------7-7-7--|

L
----------------------------------------------------------------------------|
----------------------------------------------------------------------------|
----8-8-8-8-8-7-7-7-7-14-14-14-----8-8-8-8-8-7-7-7-7-17-17-17-19--17-14-14--|
----X-X-X-X-X-X-X-X-X--X--X--X-----X-X-X-X-X-X-X-X-X--X--X--X--X--X--X--X---|
-0--6-6-6-6-6-5-5-5-5-12-12-12--0--6-6-6-6-6-5-5-5-5-15-15-15-17~-15\12-12~-|
-0------------------------------0-------------------------------------------|

R
--------------------------------------------------------------------------|
--------------------------------------------------------------------------|
----8-8-8-8-8-7-7-7-7-14-14-14-----8-8-8-8-8-7-7-7-7----------------------|
----X-X-X-X-X-X-X-X-X--X--X--X-----X-X-X-X-X-X-X-X-X-10-10-10-12~-10\7-7--|
-0--6-6-6-6-6-5-5-5-5-12-12-12--0--6-6-6-6-6-5-5-5-5--X--X--X--X---X-X-X--|
-0------------------------------0--------------------10-10-10-12~-10\7-7~-|

4:24
-------------------------------------------------------------|
-------------------------------------------------------------|
---_-----7-8----8-8-8-8-7-7-7----_-----7-8---10101010-7-7-7--|
--/ \----5-6----X-X-X-X-X-X-X---/ \----5-6----X-X-X-X-X-X-X--|
-6-5-0-6-5/6----6-6-6-6-5-5-5--6-5-0-6-5/6----8-8-8-8-5-5-5--|
-6-5-0-6-----0-----------------6-5-0-6-----0-----------------|

----------------------------------------------------------------|
----------------------------------------------------------------|
---_-----7-8----8-8-8-8-7-7-7-----------------------------------|
--/ \----5-6----X-X-X-X-X-X-X--------------------------11111111-|
-6-5-0-6-5/6----6-6-6-6-5-5-5---------------------------X-X-X-X-|
-6-5-0-6-----0-----------------8-8-8-8-8-8-7-7-7-7-7-7-11111111-|

-------------------------------------------------------------|
-------------------------------------------------------------|
---_-----7-8----8-8-8-8-7-7-7----_-----7-8---10101010-7-7-7--|
--/ \----5-6----X-X-X-X-X-X-X---/ \----5-6----X-X-X-X-X-X-X--|
-6-5-0-6-5/6----6-6-6-6-5-5-5--6-5-0-6-5/6----8-8-8-8-5-5-5--|
-6-5-0-6-----0-----------------6-5-0-6-----0-----------------|

---------------------------------------------------------------|
---------------------------------------------------------------|
---_-----7-8----8-8-8-8-7-7-7----------------------------------|
--/ \----5-6----X-X-X-X-X-X-X----------------------------------|
-6-5-0-6-5/6----6-6-6-6-5-5-5----------------------------------|
-6-5-0-6-----0-----------------8-8-8-8-8-8-7-7-7-7-7-7-1-1-1-1-|

-------------------------------------------------------------|
-------------------------------------------------------------|
---_-----7-8----8-8-8-8-7-7-7----_-----7-8---10101010-7-7-7--|
--/ \----5-6----X-X-X-X-X-X-X---/ \----5-6----X-X-X-X-X-X-X--|
-6-5-0-6-5/6----6-6-6-6-5-5-5--6-5-0-6-5/6----8-8-8-8-5-5-5--|
-6-5-0-6-----0-----------------6-5-0-6-----0-----------------|

----------------------------------------------------------------|
----------------------------------------------------------------|
---_-----7-8----8-8-8-8-7-7-7-----------------------------------|
--/ \----5-6----X-X-X-X-X-X-X--------------------------11111111-|
-6-5-0-6-5/6----6-6-6-6-5-5-5---------------------------X-X-X-X-|
-6-5-0-6-----0-----------------8-8-8-8-8-8-7-7-7-7-7-7-11111111-|

-------------------------------------------------------------|
-------------------------------------------------------------|
---_-----7-8----8-8-8-8-7-7-7----_-----7-8---10101010-7-7-7--|
--/ \----5-6----X-X-X-X-X-X-X---/ \----5-6----X-X-X-X-X-X-X--|
-6-5-0-6-5/6----6-6-6-6-5-5-5--6-5-0-6-5/6----8-8-8-8-5-5-5--|
-6-5-0-6-----0-----------------6-5-0-6-----0-----------------|

---------------------------------------------------------------|
---------------------------------------------------------------|
---_-----7-8----8-8-8-8-7-7-7----------------------------------|
--/ \----5-6----X-X-X-X-X-X-X----------------------------------|
-6-5-0-6-5/6----6-6-6-6-5-5-5----------------------------------|
-6-5-0-6-----0-----------------8-8-8-8-8-8-7-7-7-7-7-7-1-1-1-1-|

---------------------------------|
---------------------------------|
---------------------------------|
---------------------------------|
---------------------------------|
-8-8-8-8-8-8-7-7-7-7-7-7-1-1-1-1-|

-----------------------------------|
-----------------------------------|
-----------------------------------|
-------------------------11111111--|
--------------------------X-X-X-X--|
-8-8-8-8-8-8-7-7-7-7-7-7-11111111--|


5:05
----------------------------------------------------|
----------------------------------------------------|
----------------------------------------------------|
----__-----__----__---------__-----__----__---------|
--^-)(---^-)(--^-)(-------^-)(---^-)(--^-)(--^---^--|
-0-1----0-1---0-1-----0--0-1----0-1---0-1---0-1-0-1-|

----------------------------------------------------------|
----------------------------------------------------------|
----------------------------------------------------------|
----__-----__----__------------__-----__----__------------|
--^-)(---^-)(--^-)(---^------^-)(---^-)(--^-)(--^---^---^-|
-0-1----0-1---0-1----0-1-0--0-1----0-1---0-1---0-1-0-1-0-1|

-------------------------------------------------------|
-------------------------------------------------------|
----__-----__----__------------__-----__----__---------|
--^-)(---^-)(--^-)(---^------^-)(---^-)(--^-)(--^---^--|
-0-1----0-1---0-1----0-1-0--0-1----0-1---0-1---0-1-0-1-|
-0-1----0-1---0-1----0-1-0--0-1----0-1---0-1---0-1-0-1-|

----------------------------------------------------|
----------------------------------------------------|
----__-----__----__------------__-----__----__------|
--^-)(---^-)(--^-)(---^------^-)(---^-)(--^-)(--^---|
-0-1----0-1---0-1----0-1-0--0-1----0-1---0-1---0-1-0|
-0-1----0-1---0-1----0-1-0--0-1----0-1---0-1---0-1-0|

Clipes

Cifra Club Pro

Aproveite o Cifra Club com benefícios exclusivos e sem anúncios
7 dias grátis
Cifra Club Pro
Aproveite o Cifra Club com benefícios exclusivos e sem anúncios
7 dias grátis