The Shape

Slipknot

Tom: G
Afinação(C,G,C,F,A,D)


#1t1##1t2#|----------------------------------|
|----------------------------------|
|----------------------------------|
|------------------------7b--------|
|-(6)p5-5-5-(5)h6-6-6-5-----6-6p5--|
|----------------------------------| #/1t2##/1t1#

#2t1##2t2#|--------------------------------|
|--------------------------------|
|--------------------------------|
|--------------------------------|
|--21-21-21/19-19h21-------------|
|--------------------------------|#/2t2##/2t1#


#3t1##3t2#|---------------------------------|
|---------------------------------|
|---------------------------------|
|---------------------------------|
|--5-5-6-5-5----------------------|
|--5-5-6-5-5-5-5-5/6-6-6-7-7/8\7--| #/3t2##/3t1#

#4t1#Solo
#4t2#|---------------------------------------------------------|
|---------------------------------------------------------|
|---------------------------------------------------------|
|---------------------------------------------------------|
|-12-12-13-13h15p13-13\10-10-10-11-11h12p11---------------|
|-------------------------------------------7-7-8-8-8h9p8-|#/4t2##/4t1#



#5t1##5t2#|--------------------------------|
|--------------------------------|
|--------------------------------|
|--------------------------------|
|--2-2-3-3--3-4-3----------------|
|--2-2-3-3--3-4-3----------------|#/5t2##/5t1#


#6t1##6t2#|--------------------------------|
|--------------------------------|
|--------------------------------|
|--------------------------------|
|--3-3h5-5-3---------------------|
|--3-3h5-5-3---------------------|#/6t2##/6t1#


#7t1##7t2#|--------------------------------| |--------|
|--------------------------------| |--------|
|--------------------------------| |--------|
|--------------------------------| |--------|
|-3p0-(3)p0-(3)p0-(2)p0--1--0----| |-0-0-0--|
|-3p0-(3)p0-(3)p0-(2)p0--1--0----| |-0-0-0--|#/7t2##/7t1#
Composição: Colaboração e revisão: