busca

The Shape

Slipknot

Tom: G
Afinação(C,G,C,F,A,D)


|----------------------------------|
|----------------------------------|
|----------------------------------|
|------------------------7b--------|
|-(6)p5-5-5-(5)h6-6-6-5-----6-6p5--|
|----------------------------------| 

|--------------------------------|
|--------------------------------|
|--------------------------------|
|--------------------------------|
|--21-21-21/19-19h21-------------|
|--------------------------------|


|---------------------------------|
|---------------------------------|
|---------------------------------|
|---------------------------------|
|--5-5-6-5-5----------------------|
|--5-5-6-5-5-5-5-5/6-6-6-7-7/8\7--| 

Solo
|---------------------------------------------------------|
|---------------------------------------------------------|
|---------------------------------------------------------|
|---------------------------------------------------------|
|-12-12-13-13h15p13-13\10-10-10-11-11h12p11---------------|
|-------------------------------------------7-7-8-8-8h9p8-|


|--------------------------------|
|--------------------------------|
|--------------------------------|
|--------------------------------|
|--2-2-3-3--3-4-3----------------|
|--2-2-3-3--3-4-3----------------|


|--------------------------------|
|--------------------------------|
|--------------------------------|
|--------------------------------|
|--3-3h5-5-3---------------------|
|--3-3h5-5-3---------------------|


|--------------------------------| |--------|
|--------------------------------| |--------|
|--------------------------------| |--------|
|--------------------------------| |--------|
|-3p0-(3)p0-(3)p0-(2)p0--1--0----| |-0-0-0--|
|-3p0-(3)p0-(3)p0-(2)p0--1--0----| |-0-0-0--|

Clipes

Cifra Club Pro

Aproveite o Cifra Club com benefícios exclusivos e sem anúncios
7 dias grátis
Cifra Club Pro
Aproveite o Cifra Club com benefícios exclusivos e sem anúncios
7 dias grátis