busca

The Virus Of Life

Slipknot

Tom: G#
C#|-----------||
G#|---16p15---|| Done with sampler
 E|-----------||
 B|-----------||
F#|-----------||
 B|-----------||
       X  X


C#|--------------------------------------------------------||
G#|--------------------------------------------------------||
 E|--------------------------------------------------------||
 B|--------------------------------------------------------||
F#|---1--1-1--1-1-1-1-1-1---0--0-0--0-0-0-0-0-0-0----------||
 B|---1--1-1--1-1-1-1-1-1---0--0-0--0-0-0-0-0-0-0----------||
      X  X X  X X X X X X   X  X X  X X X X X X X


C#|----------------------------------------------||
G#|----------------------------------------------||
 E|---7-10-7-5-5--------9-10-9-10-11/15\---------||
 B|----------------------------------------------||
F#|----------------------------------------------||
 B|----------------------------------------------||


C#|----------------------------------------||
G#|----------------------------------------||
 E|----------------------------------------||
 B|----------------------------------------||
F#|---0-1-0----10*-----0--0----------------||
 B|---0-1-0------------0--0--2^------------||
        X X            X  X


C#|----------------------------------------||
G#|----------------------------------------||
 E|----------------------------------------||
 B|-------------3*-------------------------||
F#|---0-1-0------------0--0----------------||
 B|---0-1-0------------0--0--2^------------||
        X X            X  X


C#|------------------------------------------------------||
G#|------------------------------------------------------||
 E|------------------------------------------------------||
 B|------------------------------------------6--5--4-----||
F#|---0--2--1--0---0--2--1--0---2--3--0------4--3--2-----||
 B|---0--2--1--0---0--2--1--0---2--3--0------------------||
      X


C#|------------------------------------------------------||
G#|------------------------------------------------------||
 E|------------------------------------------------------||
 B|------------------------------------------6--5--4-----||
F#|---0--2--1--0---0--2--1--0---2--3--0------4--3--2-----||
 B|---0--2--1--0---0--2--1--0---2--3--0------------------||
      X  X  X      X  X  X  X


C#|---------------------------------------------||
G#|---181818181818191919191919171717171717------||
 E|---------------------------------------------||
 B|---------------------------------------------||
F#|---------------------------------------------||
 B|---------------------------------------------||


C#|------------------------------------------------------------------------------------------------------||
G#|---18181818118181818181819191919119191919192020202020202020221212121212121212121212222222222222222----||
 E|------------------------------------------------------------------------------------------------------||
 B|------------------------------------------------------------------------------------------------------||
F#|------------------------------------------------------------------------------------------------------||
 B|------------------------------------------------------------------------------------------------------||

Clipes

Cifra Club Pro

Aproveite o Cifra Club com benefícios exclusivos e sem anúncios
7 dias grátis
Cifra Club Pro
Aproveite o Cifra Club com benefícios exclusivos e sem anúncios
7 dias grátis