Vendetta

Slipknot

Tom: G
Tuning: Drop B

TP = Tremolo Picking
PM/"." = Palm Mute

#1t1#INTRO:
#1t2#C#|-------------------------|-------------------------|
G#|-------------------------|-------------------------|
E|*------------------------|--------------------------|
B|*------------------------|-------------------0-0----|
F#|-------------------------|-------------------0-0---|
B|---0--3----2--5----3--6--|--0--3----2--5\----0-0----|#/1t2##/1t1#
       TP------------------------------------>   . .
 
#2t1##2t2#---------------------------||
---------------------------||
--------------------------*||
--------------------------*||
--0--0--0--0--0--0--0--0---||
--0--0--0--0--0--0--0--0---||#/2t2##/2t1#
  PM-------------------->

#3t1##3t2#|---------------------------|-------------------------|
|---------------------------|-------------------------|
|*--------------------------|-------------------------|
|*--4--7----6--9----7--10\--|--4--7----6--9\----0-0---|
|---------------------------|-------------------0-0---|
|---------------------------|-------------------0-0---|#/3t2##/3t1#
    TP-------------------------------------->   . .

#4t1##4t2#---------------------------||
---------------------------||
--------------------------*||
--------------------------*||
--0--0--0--0--0--0--0--0---||
--0--0--0--0--0--0--0--0---||#/4t2##/4t1#
  PM-------------------->

#5t1##5t2#---------------------------------------------------|
---------------------------------------------------|
---------------------------------------------------|
---------------------------------------------------|
--0--0--0--0--0--0--0--0-0-0--0--0--0--0--0--0--0--|
--0--0--0--0--0--0--0--0-0-0--0--0--0--0--0--0--0--|#/5t2##/5t1#
PM------------------------------------------------>

#6t1##6t2#----------------------------------------------------|
----------------------------------------------------|
----------------------------------------------------|
----------------------------------------------------|
--0--0--0-0-0--0--0--0--0--0--0--0--0--0--0-0-0--0--|
--0--0--0-0-0--0--0--0--0--0--0--0--0--0--0-0-0--0--|#/6t2##/6t1#
PM------------------------------------------------>s

#7t1#VERSE 1:
#7t2#--------------------------------------------------|
--------------------------------------------------|
--------------------------------------------------|
--------------------------------------------------|
--12\--0--0-0-0--1p0--0--0--0-0-0--3/5\3--0--0-0--|
--12\--0--0-0-0--1p0--0--0--0-0-0--3/5\3--0--0-0--|
       .  . . .       .  .  . . .         .  . .#/7t2##/7t1#

#8t1##8t2#-----------------------------------------------|
-----------------------------------------------|
-------------10\9-9/12-12-12-------------------|
-----------------------------------------------|
--0--1p0-0----8\7-7/10-10-10-0--0--0--0--1p0-0-|
--0--1p0-0-------------------0--0--0--0--1p0-0-|
                             .  .  .  .      . #/8t2##/8t1#

#9t1##9t2#---------------------------------------------------|
---------------------------------------------------|
-----------------------------------12\10-10-10\9-9-|
---------------------------------------------------|
--0--0-0-0--3/5\3-0--0-0-0--1p0-0--10\-8--8--8\7-7-|
--0--0-0-0--3/5\3-0--0-0-0--1p0-0------------------|
  .  . . .        .  . . .      .    #/9t2##/9t1#

#10t1##10t2#---------------------------------------------|
---------------------------------------------|
---------------------------------------------|
---------------------------------------------|
--0--0-0-0--1p0--0--0--0-0-0--3/5\3--0--0-0--|
--0--0-0-0--1p0--0--0--0-0-0--3/5\3--0--0-0--|
  .  . . .       .  .  . . .         .  . .#/10t2##/10t1#

#11t1##11t2#-----------------------------------------------|
-----------------------------------------------|
-------------10\9-9/12-12-12-------------------|
-----------------------------------------------|
--0--1p0-0----8\7-7/10-10-10-0--0--0--0--1p0-0-|
--0--1p0-0-------------------0--0--0--0--1p0-0-|
                             .  .  .  .      . #/11t2##/11t1#

#12t1##12t2#---------------------------------------------------|
---------------------------------------------------|
-----------------------------------12\10-10-10\9-9-|
---------------------------------------------------|
--0--0-0-0--3/5\3-0--0-0-0--1p0-0--10\-8--8--8\7-7-|
--0--0-0-0--3/5\3-0--0-0-0--1p0-0------------------|
  .  . . .        .  . . .      .    #/12t2##/12t1#

#13t1##13t2#---------------------------------------------|
---------------------------------------------|
---------------------------------------------|
---------------------------------------------|
--0--0-0-0--1p0--0--0--0-0-0--3/5\3--0--0-0--|
--0--0-0-0--1p0--0--0--0-0-0--3/5\3--0--0-0--|
  .  . . .       .  .  . . .         .  . .#/13t2##/13t1#

#14t1##14t2#-----------------------------------------------|
-----------------------------------------------|
-------------10\9-9/12-12-12-------------------|
-----------------------------------------------|
--0--1p0-0----8\7-7/10-10-10-0--0--0--0--1p0-0-|
--0--1p0-0-------------------0--0--0--0--1p0-0-|
                             .  .  .  .      . #/14t2##/14t1#

#15t1##15t2#------------------------------------------------|
------------------------------------------------|
-----------------------------------12\10-10-10\-|
------------------------------------------------|
--0--0-0-0--3/5\3-0--0-0-0--1p0-0--10\-8--8--8\-|
--0--0-0-0--3/5\3-0--0-0-0--1p0-0---------------|
  .  . . .        .  . . .      .    #/15t2##/15t1#

PLAY INTRO AGAIN

PLAY VERSE AGAIN

#16t1#BRIDGE:
#16t2#|---------------------------------------------------|
|---------------------------------------------------|
|*--------------------------------------------------|
|*--------------------------------------------------|
|---------------------------------------------------|
|---0--3--2--0--2--1--0--3--2--5--3--6--5--4--5--4--|#/16t2##/16t1#
PM----------------------------------------------->

#17t1##17t2#---------------------------------------------------||
---------------------------------------------------||
--------------------------------------------------*||
--------------------------------------------------*||
---------------------------------------------------||
--3--4--3--2--3--2--1--0--3--2--0--2--1--0--3--0---||#/17t2##/17t1#
PM--------------------------------------------->

#18t1#CHORUS:
#18t2#-----------------------------|---------------------------|
-----------------------------|---------------------------|
-----------------------------|---------------------------|
-----------------------------|---------------------------|
--12\--0--0--6---5---3~---0--|--0-8---7---1~---0--0--6---|
--12\--0--0--6---5---3~---0--|--0-8---7---1~---0--0--6---|
       .  .               .     .              .  .#/18t2##/18t1#

#19t1##19t2#----------------------------|-------------------------------|
----------------------------|-------------------------------|
----------------------------|-------------------------------|
----------------------------|-------------------------------|
--5---3~---0--0--3---2---1~-|----\--0--0--6----5----3~---0--|
--5---3~---0--0--3---2---1~-|----\--0--0--6----5----3~---0--|
           .  .                     .  .                 .#/19t2##/19t1#

#20t1##20t2#---------------------------|-----------------------------||
---------------------------|-----------------------------||
---------------------------|-----------------------------||
---------------------------|-----------------------------||
--0-8---7---1~---0--0--6---|--5---3~---0--0--3---2----||
--0-8---7---1~---0--0--6---|--5---3~---0--0--3---2-------||
  .              .  .                  .  .#/20t2##/20t1#

PLAY INTRO

PLAY VERSE

PLAY BRIDGE (one time palm muted and one time without palm mute)

#21t1#CHORUS 2:
#21t2#------------------------|
------------------------|
------------------------|
------------------------|
--0--0--6---5---3~---0--|
--0--0--6---5---3~---0--|
  .  .               .  #/21t2##/21t1#

#22t1##22t2#------------------------------|-----------------------------|
------------------------------|-----------------------------|
------------------------------|-----------------------------|
------------------------------|-----------------------------|
--5---3~---0--0--3---2---~-|-----0--0--6----5----3~---0--|
--5---3~---0--0--3---2--------|-----0--0--6----5----3~---0--|
           .  .                     .  .                 .#/22t2##/22t1#

#23t1##23t2#---------------------------|----------------------------|
---------------------------|----------------------------|
---------------------------|----------------------------|
---------------------------|----------------------------|
--0-8---7---1~---0--0--6---|--5---3~---0--0--3---2---1~-|
--0-8---7---1~---0--0--6---|--5---3~---0--0--3---2---1~-|
    .              .  .                  .  .          #/23t2##/23t1#
 
||--------------------------|-----------------------------|
||--------------------------|-----------------------------|
||--------------------------|-----------------------------|
||--------------------------|-----------------------------|
||--0--0--6---5---~---0--|--0-8---7---~---0--0--6---|
||--0--0--6---5----------0--|--0-8---7----------0--0--6---|
    .  .                 .     .                .  .    

#24t1##24t2#--------------------------------||
--------------------------------||
--------------------------------||
--------------------------------|| x2
--5---~---0--0--3---2---1~-||
--5----------0--0--3---2--------||
             .  .#/24t2##/24t1#

#25t1#BREAKDOWN:
#25t2#------------------------------------|------------------------------------|
------------------------------------|------------------------------------|
------------------------------------|------------------------------------|
------------------------------------|----8-----7-----7\5/8-------------|
--------0--3--2------------0--3--2--|----6--0--5--0--5\3/6-1--0--3--2--|
--/3~---0--3--2----/3--/3--0--3--2--|-------0-----0--------1--0--3--2--|
        .  .  .            .  .  .          .     .        .  .  .  .#/25t2##/25t1#

#26t1##26t2#----------------------------------||
----------------------------------||
----------------------------------||
-------------------5-----5--------|| play that for quite a while
----------0--3--2--3--0--3--5--4--||
--/3--/3--0--3--2-----0-----5--4--||
          .  .  .     .     .  .#/26t2##/26t1#

PLAY INTRO

PLAY BRIDGE ONLY ONCE

PLAY CHORUS

PLAY BREAKDOWN
Composição: Colaboração e revisão: Raul Rodrigues