Vermilion Pt.2

Slipknot

A
123
X02220
B5
134
X244XX
B5/A#
134
X144XX
Bm11
34
X22432
D5(6/9)
1
XX0200
Em7(9)
1234
X7577X
F#
234
244322
F#m7
1234
2X222X
G#5
134
466XXX
G#5+
234
47654X
G#9
234
468544
G7M
1234
3X443X
Tom: G
[Intro] G#5  G#5(9)  G#5+  G#5  G#5+  G#5  B5  B5/A#

#1t1#   G#5  G#5(9) G#5+  G#5     G#5+   G#5  
#1t2#E|----------------------------------------------------|
B|----------------------------------------------------|
G|----------------------------------------------------|
D|-6-6-6-8-8-8----------------------------------------|
A|-6-6-6-6-6-6-7-7-7-6-6-6-6-7------6---6-------------|
E|-4-4-4-4-4-4-4-4-4-4-4-4-4-4------4---4-------------|#/1t2##/1t1#

#2t1#   B5               B5/A#
#2t2#E|----------------------------------------------------|
B|----------------------------------------------------|
G|-4-4-4-4-4-4-4-4--4-4-4-4-4-4-4-4-------------------|
D|-4-4-4-4-4-4-4-4--4-4-4-4-4-4-4-4-------------------|
A|-2-2-2-2-2-2-2-2--1-1-1-1-1-1-1-1-------------------|
E|----------------------------------------------------|#/2t2##/2t1#

[Primeira Parte]

[Riff 1]

( G#5  G#5(9)  G#5+  G#5  G#5+  G#5  B5  B5/A# )

She  seemed dressed in all of me

Stretched across my shame

All the torment and the pain

Leaked through and covered me

I'd do anything to have her to myself

Just to have her for myself

Now I don't know what to do
                      A
I don't know what to do
                   B5  B5º
When she makes me sad

[Riff]

She is everything to me

The unrequited dream

A song that no one sings

The unattainable

She's a myth that I have to believe in

All I need to make it real is one more reason

I don't know what to do
                      A
I don't know what to do
                   B5 B5º
When she makes me sad

[Refrão]

#3t1##3t2#E|---------------------------------------------------|
B|----3---3------3---3------3---3------3---3---------|
G|------6---6------6---6------6---6------6---6-------| (3x)
D|--5----------4---------------------0---------------|
A|------------------------2--------------------------|
E|---------------------------------------------------|#/3t2##/3t1#

#4t1##4t2#E|---------------------------------------------------|
B|----3---3------3---3------3---3--------------------|
G|------6---6------6---6------6---6------------------|
D|--5----------4-------------------------------------|
A|------------------------2--------------------------|
E|---------------------------------------------------|#/4t2##/4t1#

        G7M            F#         Bm11      D5(6/9)
 But I won't let this build up inside of me  
        G7M            F#         Bm11      D5(6/9)
 But I won't let this build up inside of me   
        G7M            F#         Bm11      D5(6/9)
 But I won't let this build up inside of me    
        G7M            F#         Bm11
 But I won't let this build up inside of me

[Solo]

#5t1##5t2#E|----------------------------------------------------|
B|----------------------------------------------------|
G|--4-6-7---7---7-7-7-7-9---9-9-9-9-------------------|
D|----------5---5-5-5-5-7---7-7-7-7-------------------|
A|--2-4-5---------------------------------------------|
E|----------3---3-3-3-3-5---5-5-5-5-------------------|#/5t2##/5t1#

#6t1#                        Bm11
#6t2#E|----------------------0--0-0-0-0--------------------|
B|----------------------3--3-3-3-3--------------------|
G|-6--6-6-6-6--4---3----4--4-4-4-4--------------------|
D|-7--7-7-7-7--5---4----4--4-4-4-4--------------------|
A|----------------------2--2-2-2-2--------------------|
E|-5--5-5-5-5--3--------------------------------------|#/6t2##/6t1#

[Segunda Parte] 

Bm11   Em7(9)        Bm11
    A catch in my throat, choke
 F#m7      G7M
Torn into pieces
   Bm11
I won't, no!
   F#m7        G7M
I don't wanna be this

[Refrão]

        G7M            F#         Bm11    D5(6/9)
 But I won't let this build up inside of me    
        G7M            F#         Bm11    D5(6/9)
 But I won't let this build up inside of me
        G7M            F#         Bm11    D5(6/9)
 But I won't let this build up inside of me
      G7M              F#
 But I won't let this build up... inside of me

[Riff]

( G#5  G#5(9)  G#5+  G#5  G#5+  G#5  B5  B5/A# )
( G#5  G#5(9)  G#5+  G#5  G#5+  G#5  B5  B5/A# )

She isn't real

I can't make her real 

She isn't real

I can't make her real 

[Final] G#5  G#9  G#5+  G#5
Composição: SlipknotColaboração e revisão: Getúlio VasconcelosVictor BaldezAlison SouzaVinicius Velosoe mais 2
Videoaula Vermilion PT.2 (aula de violão completa)