|| / || / O verso é similar a intro. / Pre-Refrão: / Refrão: / (9 vezes, em s" /> || / || / O verso é similar a intro. / Pre-Refrão: / Refrão: / (9 vezes, em s">
busca

Welcome

Slipknot

Tom: E
Afinação: - Drop B.

||-----------------------------------------------|
||-----------------------------------------------|
||-----------------------------------------------|
||-----------------------------------------------|
||-----------------------------------------------|
||--1-0-0----0h1-0-0----1-0-0----0--0-1-0--------| -(x2)
    . .                             . .
    # #                               #

---------------------------------------------------------------||
                                                               ||
||-----------------------------------------------|             ||
||-----------------------------------------------|             ||
||-----------------------------------------------|             ||
||-----------------------------------------------|             ||
||-----------------------------------------------|             ||
||--0-4-3-0--------------------------------------| -(x8)       ||
    . . . .                                                    ||
                                                               ||
||-----------------------------------------------|             ||
||-----------------------------------------------|             ||
||-----------------------------------------------|             ||
||-----------------------------------------------|             ||
||-----------------------------------------------|             ||
||--0-1-0-0--------------------------------------| -(x16)      ||
                                                               ||
----Use palhetada alternada para este riff---------------------||


O verso é similar a intro.

Pre-Refrão:
||-----------------------------------------------|
||-----------------------------------------------|
||-----------------------------------------------|
||--88888888-------------------------------------|
||--88888888-------------------------------------|
||--88888888-------------------------------------|
    ........

Refrão:
||-----------------------------------------------|
||-----------------------------------------------|
||-----------------------------------------------|
||-----------------------------------------------|
||------ 3-/2-/5---------------------------------|
||--0-0--3/2-/3-0--10/9--0--3/2--0--6/5----------| -(x4)
    . .       .        .       .

||-----------------------------------------------|
||-----------------------------------------------|
||-----------------------------------------------|
||-----------------------------------------------|
||-----------------------------------------------|
||--0-2-1-0--------------------------------------|
    . . . .
(9 vezes, em seguida, faz um slide da 12 pra 0)


Solo backing:
||-----------------------------------------------|
||-----------------------------------------------|
||-----------------------------------------------|
||-----------------------------------------------|
||---------------3*------------------------------|
||--1-0-0----0-1-----0-0-0-0---------------------|
                     . . . .

Depois do Solo, varia um pouco:
||-----------------------------------------------|
||-----------------------------------------------|
||-----------------------------------------------|
||-----------------------------------------------|
||----------------------3*-----------------------|
||--1-0-0--1-0-0----0-1-----0-0-0-0--------------|

Clipes