Welcome

Slipknot

Instrumento: Baixo

drop B

Intro
|---------------------------------------------|
|---------------------------------------------|
|---------------------------------------------|
|--4-4-3-3-1----3--1-0-------1-1-1----1--1-0--|

|---------------------------------------------|
|---------------------------------------------|
|---------------------------------------------|
|--1-0-1---1-0-1---1-0-1---1-0-1--------------|

Verse
|---------------------------------------------|
|---------------------------------------------|
|---------------------------------------------|
|--4-4-3-3-1----3--1-0-------1-1-1----1--1-0--|

Chorus
|---------------------------------------------|
|---------------------------------------------|
|---------------------------------------------|
|--0-0-9---0-0-8---0-0-7---0-0-6--------------|

Bridge
|---------------------------------------------|
|---------------------------------------------|
|---------------------------------------------|
|--0-0-0-1-0-1-0-3-0-1------------------------|
Composição: Colaboração e revisão: