Depois do Prazer

Só Pra Contrariar

A
123
X02220
Bm
234
X24432
Bm/A
123
X0443X
Bm7
34
X24232
Bm7+
234
X24332
D
123
XX0232
D/F#
1234
2X0232
E/F#
1234
XX4454
E/G
1234
322100
E/G#
1234
4X245X
E7
1234
022130
F#7
34
242322
F#m7
1234
2X222X
Tom: G
(intro) Bm7 Bm7 A A Bm7 Bm7 A A


Solo Intro

#1t1##1t2#E|-------------------7---7---/10---10--9-9---------|
B|-------------7---7--11-------------------7-7-----|
G|-------7-6-7--10-----------------------------7-7-|
D|-9-8-9-------------------------------------------|
A|-------------------------------------------------|
E|-------------------------------------------------|#/1t2##/1t1#


#2t1##2t2#E|-9-10-7-9----------------------------------------|
B|----------10---9-10-7-9--------------------------|
G|------------------------9------------------------|
D|---------------------------6-9-8-7-6h7p6---6-----|
A|-----------------------------------------9-------|
E|-------------------------------------------------|#/2t2##/2t1#


#3t1##3t2#E|-------------------7---7---/10---10--9-9---------|
B|-------------7---7--11-------------------7-7-----|
G|-------7-6-7--10-----------------------------7-7-|
D|-9-8-9-------------------------------------------|
A|-------------------------------------------------|
E|-------------------------------------------------|#/3t2##/3t1#

#4t1#                                           Harm.
#4t2#E|----9h10p9---------------------------------------|
B|-----------10------------------------------------|
G|------------------6h7p6--------------------------|
D|------------------------7----------------7-------|
A|------------------------------4h5p4--------------|
E|------------------------------------5------------|#/4t2##/4t1#


A                              F#m7
   Tô fazendo amor com outra pessoa
              Bm              E/G#   D/F# E7
Mas meu coração vai ser pra sempre teu
A                            F#m7
   O que o corpo faz a alma perdoa
           Bm Bm/A         E/G#  D/F# E7
Tanta solidão   quase me enlouqueceu

(parte 2)
                  A
Vou falar que é amor
                   E/G#
Vou jurar que é paixão
     E/G                                F#7
E dizer o que sinto com todo carinho pensando em você
       Bm
Vou fazer o que for
          Bm7+
E com toda emoção
     Bm7                                      E7
A verdade é que eu minto que vivo sozinho não sei te esquecer

     A
E depois acabou
   E/G#
Ilusão que eu criei
   E/G                                  F#7
Emoção foi embora e a gente só pede pro tempo correr
       Bm
Já não sei quem me amou
       Bm7+
Que será que eu falei
       Bm7                                  E7
Da pra ver nessa hora que amor só se mede depois do prazer


(refrão)
A                                    F#m7
Fica dentro do meu peito sempre com saudade
 Bm                D                  E7
Só pensando no teu jeito eu amo de verdade
A                                     F#m7
E quando o desejo vem é teu nome que eu chamo
Bm                      D                    E7
Posso até gostar de alguém mas é você que eu amo


(base solo) A A F#m7 Bm Bm/A E/G# E/F# E7


#5t1#(solo)
#5t2#E|--------------------------------------------|
B|-2/5-5-3-2-0---2/5-5~-7-9h10-7-9h10-7-9h10-7|
G|-------------2------------------------------|
D|--------------------------------------------|
A|--------------------------------------------|
E|--------------------------------------------|#/5t2##/5t1#

#6t1##6t2#E|------7-9h10-7-9h10-7-9h10-7-9-10-10/12-10-9|
B|-9-10---------------------------------------|
G|--------------------------------------------|
D|--------------------------------------------|
A|--------------------------------------------|
E|--------------------------------------------|#/6t2##/6t1#

#7t1##7t2#E|-5-4-5-0------------------------------------|
B|---------3-2--------------------------------|
G|-------------2------------------------------|
D|--------------------------------------------|
A|--------------------------------------------|
E|--------------------------------------------|#/7t2##/7t1#

(repete parte 2)
(repete refrão)
Composição: Chico Roque / Sérgio CaetanoColaboração e revisão: Diego fJean SantosMarcos Martins