busca

Global Warning

Steel Pulse

  Intro 
G|-----------------------------------------| 
D|-----------------------------------------| 
A|--------------------------11-9-----------| 
E|----------7------7-9-----------11-9------| 
B|-9------9---------------------------12-9-| 

  Verses and Chorus 
G|--------------------------|-------------------------| 
D|--------------------------|-------------------------| 
A|--------------------------|-------------------------| 
E|------------11-9-9--7-7-7-|-------------------9-9-9-| 
B|-9--9--9-12---------------|-9--9--9-9-8-6--6--------| 

  1st Break 
G|-------------------------|--------------------|-------------------------| 
D|-------------------------|--------------------|-------------------------| 
A|-------------------------|-------7h9-9--9-9-9-|-------9h11-11--11-11-11-| 
E|-------9h11-11--11-11-11-|-7---7--------------|-9---9-------------------| 
B|-9---9-------------------|--------------------|-------------------------| 

  1st ending 
G|-----------------------------| 
D|-----------------------------| 
A|-----------------------------| 
E|-------9h11-11--11-9---------| 
B|-9---9---------------12-11-9-| 

  2nd ending 
G|----------------| 
D|----------------| 
A|-11-9-----------| 
E|------11-9------| 
B|-----------12-9-| 

  2nd Break 
G|------------------------------------------| 
D|------------------------------------------| 
A|------------------------6-----------------| 
E|-------9-9-9----------7---9-9-7-7-7-------| 
B|-6--6---------9--9--9----------------9--9-| 

G|------------------| 
D|------------------| 
A|------------------| 
E|------------9-9-9-| 
B|-9-9-8-6-6--------|

Clipes