busca

Johnny Was Intro

Stiff Little Fingers

Tom: F
Johnny Was
Written by Bob Marley
Tab - Colt   aka El Colto~

i couldn't find a tab for this song anywhere so one day i had it stuck in my head and
had to figure out how to play it. i got the intro down (except for the random fast
struming before the actual playing). the notes are there and how you play it is shown,
but you'll have to listen to the song for the order of the riffs. here it is:

33---------3--5---3--5--3-------------D
A--3--5-------3--5-------------3--5---3--5----------------A
*
  eventually the second guitar and the bass come in with the dotted(.)part

                                      This is fast, but not too hard
                                               |   
                                             \ | /
                                              \ /  

E------------------------->-------------------3------------+------>-------E
B------------------------------------------2/3-3--------------------------B
G---6---5-3------6---5-3--------6--5-3----------5-3---------------3-------G
D------------5------------5------------5-3----------5-3-3--5--3--5--------D
A-------------------------------------------------------^repeat this^-----A
E-------------------------------------------------------------------------E
This is right before Jake starts singing. I don't know if he or Henry played it.  
             %%%  %%%
          i %   %%  % SLF!  
             %  %% %
               %%%%
                %%
  in short closing, i must say that you, the reader, are the prettiest opossum trainer
i've ever had the pleasure of spying on from the bushes behind the gas station down the
street from your home. bless you.

Clipes

Cifra Club Pro

Aproveite o Cifra Club com benefícios exclusivos e sem anúncios
7 dias grátis
Cifra Club Pro
Aproveite o Cifra Club com benefícios exclusivos e sem anúncios
7 dias grátis