busca

Nobodys Hero

Stiff Little Fingers

Tom: A
From * Mon May 22 22:37:26 1995
From: * (u01jer)
Date: 22 May 1995 11:22:02 GMT
Newsgroups: *

This was requested, so here goes....:)
If anyone wants any other SLF stuff that isn't at OLGA, try emailing me here
(*) before June 9th or post on *
I'm leaving uni in June, so I'll be switching addresses about then.

                                 NOBODY'S HERO
                              ^^^^^^^^^^^^^^^^^^^^
No special tabbing rules, just that:
---X--- is muffled strings....:)
I haven't included the playing order of riffs, but it should be pretty obvious
what goes where.


INTRO:
  D              G              A
|-2------------|-3------------|---------------------------------|
|-3------------|-3------------|-2---5-5-5-3-2-3---5---3---2-----|
|-2------------|-0------------|-2---2-2-2-2-2-2---2---2---2-----|
|-0------------|-0------------|-2-------------------------------|
|--------------|-2------------|-0-------------------------------|
|--------------|-3------------|---------------------------------|

VERSE:
  D              G              A
|-2------------|-3------------|----------------------------|
|-3------------|-3------------|-2--------------------------|
|-2------------|-0------------|-2--------------------------|
|-0------------|-0------------|-2--------------------------|
|--------------|-2------------|-0------------------0-2-4---|
|--------------|-3------------|----------------------------|


CHORUS:
  D               A                 G               A
|-2-------X---X-------------------|-3--------------------------------|
|-3-------X---X---2-------X---X---|-3---------------2-------X---X----|
|-2-------X---X---2-------X---X---|-0-------X---X---2-------X---X----|
|-0-------X---X---2-------X---X---|-0-------X---X---2-------X---X----|
|-----------------0-------X---X---|-x-------X---X---0-------X---X----|
|---------------------------------|-3-------X---X--------------------|


BRIDGE:
    F#5     E5   (x3) G5     A5
||--------|----0---||------|------|
||o-------|----0--o||------|------|
||--------|--------||------|------|
||o-4-----|-2-----o||-5----|-7----|
||--4-----|-2------||-5----|-7----|
||--2-----|-0------||-3----|-5----|

--
+--------------------------------------------------------------------+
| Posted by Jake Riddoch from the University of Aberdeen, Scotland.  |
| *    Also at: http://*~u01jer    |
+--------------------------------------------------------------------+
| And yeah, as I walk through the valley of the shadow of Death, I   |
| shall fear no evil, cause I'm packing an M60 with explosive ammo.  |
+--------------------------------------------------------------------+

Clipes