busca

Suspect Device Live

Stiff Little Fingers

Tom: A
E--------------------
B|--------------------
G|-----9999-999-99-99-
D|-----9999-999-99-99-
A|-----7777-777-77-77-
E|7h9----------------

this is where he sings 'Inflammable material...'Verse

E|-------------------------------------
B|-------------------------------------
G|---------------------------9---------
D|9-99999999999999-7-777777-9-9-999---
A|9-99999999999999-7-777777-7-9-999---
E|7-77777777777777-5-555555---7-777---

E|------------------------------------------------------------------
B|------------------------------------------------------------------
G|---------------------------9-99999-77------9-999999-77------9-999-
D|9-99999999999999-7-777777-9-99999-77-7777-9-999999-77-7777-9-999-
A|9-99999999999999-7-777777-7-77777-55-7777-7-777777-55-7777-7-777-
E|7-77777777777777-5-555555------------5555-------------5555-------

Chorus:

E|---------------------------------------------------------
B|---------------------------------------------------------
G|999-99-999-99-999-------9999-999-9-9-9-9-9-9-------9999-
D|999-99-999-99-999-99-77-9999-999-9-9-9-9-9-9-99-77-9999-
A|777-77-777-77-777-99-77-7777-777-7-7-7-7-7-7-99-77-7777-
E|-------------------77-55----------------------77-55------

Bridge:

|e|------------------------------7~----
|B|------------------------------7~----
|G|------------------------------------
|D-999-777-2222-999-777-2222-2~----2~-
|A-999-777-2222-999-777-2222-2~----2~-
|E-777-555-0000-777-555-0000-0~----0~-

|e|-----------------------------------
|B|-----------------------------------
|G|-----------------------------------
|D-6/7-7-7-7-7-7-7-7-6/7-7-7-7-7-7-7-
|A-4/5-5-5-5-5-5-5-5-4/5-5-5-5-5-5-5-
|E|-----------------------------------

Then there a werid kinda false chorus where he goes 'Don't believe them, Dont belive I tell you question everything youre toooooolllldd!' where he does this...

E|------------------------------
B|------------------------------
G|999-99-999-99-999---------9~-
D|999-99-999-99-999-999-777-9~-
A|777-77-777-77-777-999-777-7~-
E|-------------------777-555----

Then it goes back into the verse.This is basically it, its all made up of these 4 riffs. I can't think of the order, I'l and post it later, please rate this!

Clipes

Cifra Club Pro

Aproveite o Cifra Club com benefícios exclusivos e sem anúncios
7 dias grátis
Cifra Club Pro
Aproveite o Cifra Club com benefícios exclusivos e sem anúncios
7 dias grátis