Am
123
X02210
Am7
12
X02010
Bb
234
X13331
C
123
X32010
Cm
234
X35543
Cm7
34
X35343
D
123
XX0232
D/F#
1234
2X0232
D5/F#
123
2X023X
D7
123
XX0212
D7/9
1234
X5455X
Eb
234
X65343
Em
12
022000
F7
34
131211
G
123
320003
G/E
123
020033
G5/F#
134
255XXX
G7
34
353433
Gm
34
355333
Tom: G

Intro:
     Gm         Cm                
E|------------------------------
A|------------------------------
D|------------------------------
G|----------------5-4-5---------
B|--------------------3-4-6-----
E|-3--5-6-5p3---------------3-4-
                                  
E|-------------------------------------------------------------------- 
A|-------------------------------------------------------------------- 
D|-----------------------5---3------3--5------------------------------ 
G|----------------5--3-----------------3-4-5-------------------------- 
B|------6-4-3--------------------------------3-4-5-6-----3-4-4p3-----  
E|4p3----------------------------------------------------------------  


G
Toda noite saiu eu pelas noitadas
                            Em     
Milhares de madrugadas para andar 
         Am
de bar em bar
         D7                      
sem encontrar a mulher que é meu 
Am
premio
                      D       
essa é a vida de um boemio que 
                G     C   D
nasceu para chorar
           G
Por coincidencia todos bares que 
frequento
           G7         C
99% sempre tocam a canção
          Cm                 G
e eu me envolvo naquela melodia
      Em        Am         D     
e ao ouvir a boemia me entrego ao
       G     ( Am  D5/F#  Gm )
 garrafao

E|-----7---10-8-8p7------------
B|-8-10---------------10--8-7--
G|-----------------------------
D|-----------------------------
A|-----------------------------
E|-----------------------------

E|7/8----------- 
B|------11-10-8- 
G|-------------- 
D|-------------- 
A|-------------- 
E|-------------- 


 Gm                         Cm
Boemia, aqui me tens de regresso
                 D7              
E suplicante te peço a minha nova 
       Gm   G7
inscrição
        Cm7                 Gm
E eles dizem: Ele voltou e alguem 
vem me consolar
Eb D E a minha conta alguem ja pagou e me convidam pra ir pra outro G C D bar G G5/F# G/E E quando chego no outro bar, a G G5/F# G/E mesma canção a tocar G D/F# D7 vai ate raiar o dia Am E a canção assim me diz que eu D7/9 Am7 D7 troquei quem mais me quis G pra viver na boemia G G5/F# G/E E quando chego no outro bar, a G G5/F# G/E mesma canção a tocar G D/F# D7 vai ate raiar o dia Am D7 E a canção assim me diz que eu D7/9 Am7 troquei quem mais me quis G pra viver na boemia E|----3--5/6-6/5--3-5/6-6/5--3--- B|--3---------------------------- G|------------------------------- D|------------------------------- A|------------------------------- E|------------------------------- E|------ B|4-4p3- G|------ D|------ A|------ E|------ Gm Cm E|-----3----5-6-5p3--------------- B|----------------------------3-4- G|-----------------------3-2-3---- D|-------------------------------- A|-------------------------------- E|-------------------------------- E|---3-4-4p3----------------------- B|6----------6-4-3----------------- G|----------------5--3------------- D|--------------------5---3-------- A|--------------------------------- E|--------------------------------- F7 E|----------------------------------------- B|---------3--4-5-6---------34-4p3--------- G|----3-4-5-------------------------------- D|3--5------------------------------------- A|----------------------------------------- E|----------------------------------------- Cm7 Gm E eles dizem: Ele voltou e alguem vem me consolar Eb E a minha conta alguem ja pagou e D me convidam pra ir pra outro G C D bar G G5/F# G/E E quando chego no outro bar, a G G5/F# G/E mesma canção a tocar G D/F# D7 vai ate raiar o dia Am D7 E a canção assim me diz que eu D7/9 Am7 troquei quem mais me quis G pra viver na boemia G G5/F# G/E E quando chego no outro bar, a G G5/F# G/E mesma canção a tocar G D/F# D7 vai ate raiar o dia Am D7 E a canção assim me diz que eu D7/9 Am7 troquei quem mais me quis D7 G Eb D G pra viver na boemia
Composição: Marcello TeodoroColaboração e revisão: andre soares