busca

Potranca Valente

Teodoro e Sampaio

Tom: E
(intro) E B7 E B7 E B7 E B7   E B7 E

    E                B7                E
E|--------------------------------------|
B|----0---0----5-4-2----0---0----4-2-0--|
G|-------------5-3-1-------------3-1-0--|
E|--4---4---4---------2---2---2---------|
B|--------------------------------------|

                     B7              E
E|--------------------------------------|
B|----0---0------------5-4-2-0---0------|
G|-------------1-2-3---5-3-1-0-1-0-0----|
E|--4---4---4------------------2---0----|
B|-------------------0------------------|

                             B7                                 E
E|--12----12-------7h9p7-5-4---11----11----11h12p11---7h9p7-5-4-----|
B|-----14----14--9-------7-5------12----12----------9-------7-5-----|
G|------------------------------------------------------------------|
E|------------------------------------------------------------------|
B|------------------------------------------------------------------|

                           B7                          E   B7 E
E|--12----12-------5-----11---0-14----0-11-----0-7-5-4-|
B|-----14----14----7-----12---0-15----0-12-----0-9-7-5-|
G|-----------------------------------------------------|
E|-----------------------------------------------------|
B|--------------0-----0-----0------0--------0----------|

                           B7         E
Sou um peão arrojado de medalha na lapela
                                           B7
Touro bravo eu pego a unha agarrado na barbela
    A                        E             A
Eu não caio do cavalo eu nunca quebrei costela
     B7          E                        B7
Sou peão de boiadeiro e não tem cavalo inteiro
                      E    B7 E
Pra me derrubar da sela

(refrão)
       A
Eu só tive uma derrota
      E          A
No rodeio da paixão
      B7        E
Eu digo sinceramente
                B7
Uma potranca valente
                  E  B7 E
Derrubou meu coração

(intro)

                                B7           E
Nos rodeios onde eu passo monto e chego a espora
                                            B7
Mas nos braços da potranca este cavaleiro chora
    A                        E         A
Na arena do meu peito tem rodeio toda hora
      B7         E                     B7
Essa potranca valente tá me deixando doente
                   E    B7 E
É paixão que me devora

(refrão)
(intro)
                             B7          E
Essa potranca valente tá me surrando de reio
                                           B7
Ela subiu no meu ombro já me pôs rédeas e freio
   A                        E           A
Estou de queixo caído já perdi este torneio
     B7            E                       B7
Garanhão perdeu a banca na verdade essa potranca
                 E    B7 E
É a rainha do rodeio

(refrão)
                                       harm.
E|-------------------------------------12-|
B|----0---0------------5-4-2-0---0-----12-|
G|-------------1-2-3---5-3-1-0-1-0-0---12-|
E|--4---4---4------------------2---0---12-|
B|-------------------0-----------------12-|

Clipes

Cifra Club Pro

Aproveite o Cifra Club com benefícios exclusivos e sem anúncios
Cifra Club Pro
Aproveite o Cifra Club com benefícios exclusivos e sem anúncios