Vestido de Seda

Teodoro e Sampaio

C
123
X32010
D
123
XX0232
D7
123
XX0212
G
123
320003
G7
34
353433
Tom: G

[Intro]
                        G         
E|-----7--10---9--10/12-10----9-
B|---8--------------------------
G|-7----------------------------
D|------------------------------
A|------------------------------
E|------------------------------
        G7                 
E|10-7----------7-9/12--10-10-8--8-10-12----| 
B|-----8-7~---7-----------------------------| 
G|---------9--------------------------------| 
D|------------------------------------------| 
A|------------------------------------------| 
E|------------------------------------------| 



    C             G              
E|-8-8h10-8-8-7--7-7-7h8-7-7-5--5-
B|--------------------------------
G|--------------------------------
D|--------------------------------
A|--------------------------------
E|--------------------------------
  D         G
E|5-5h7-5-3--5-3-5-3~---------------
B|----------------------------------
G|----------------------------------
D|----------------------------------
A|----------------------------------
E|----------------------------------


[Primeira Parte]

 G                             C  
Meu bem eu queria que você 
      D            G
voltasse ao menos pra buscar
Alguns objetos que na despedida você
        D
 não levou

[Pré-Refrão]

                         C      
Um batom usado caído no canto da 
        G
penteadeira
                            D
Um vestido velho cheio de poeira
            C          D         G
Jogado no quarto com marcas de amor

[Refrão]

             D7            C 
Vestido de seda o seu manequim 
                G
também te deixou
D Ai no cantinho não tem mais valor C D G Se não tem aquela que tanto te usou D Eu também não passo de um trapo C G humano sem minha querida D Usado e jogado num canto da vida C D Não sei o que faço sem meu grande G amor ( G G7 C G D G ) [Segunda Parte] C Eu já nem acendo a luz do meu D G quarto quando vou deitar Porque no escuro não vejo no espelho D meus olhos chorando [Pré-Refrão] Não vou na cozinha pra não ver dois C G copos vazios na mesa D Fazendo lembrar com tanta tristeza C D G Da última noite que nós nos amamos [Refrão] D7 C Vestido de seda o seu manequim G também te deixou D Ai no cantinho não tem mais valor C D G Se não tem aquela que tanto te usou D Eu também não passo de um trapo C G humano sem minha querida D Usado e jogado num canto da vida C D Não sei o que faço sem meu grande G amor ( G )
Composição: Alcino Alves / TeodoroColaboração e revisão: Gabriel SilvaNierme souzaJeferson FernandesIgor Guedese mais 7

Utilizamos cookies para personalizar sua experiência. Ao acessar o site, você concorda com a nossa Política de Privacidade.