busca

Entrego Tudo

Thalles Roberto

Tom: C
Intro:(Base:Dm7,Em7 e Am7/E)3x    F/A Bm11


E|-------------------------------------x----x---|
B|-------------------------------------6---5----|
G|----------------------------------4--5---7----|(3x)
D|-------------------------------5-7---3---7----|Obs:Só na 3ª vez faça os acordes e não
A|--5-3-5--5-7-5-7----------5/7--------x---x----|toque a casa 4 da corda G,faça o acorde.
E|-----------------3-5-3-5-------------5---7----|

 Dm7 Em7 Am7/E F/A  Bm11


E|--5-----7------5-------x-----x----|
B|--6-----8------5-------6-----5----|Obs:Formas do Acordes para a Guitarra!
G|--5-----7------5-------5-----7----|
D|--7-----9------5-------3-----7----|
A|--5-----7------7--------x----x----|
E|--x-----x-------x-------5-----7---|


Dm7                  Em7         Am7/E
Entrego tudo a ele tudo, a ele tudo o que sou,
Dm7                 Em7                         Am7/E
A minha vida se é pra mim mesmo não é mais nada além de vento,
Dm7                  Em7         Am7/E
Entrego tudo a ele tudo, a ele tudo o que sou,
Dm7                 Em7                        Am7/E
A minha vida se é pra mim mesmo não é mais nada

Dm7               Em7           Am7/E
O mais tudo ele fará sei que posso descansar,
Dm7               Em7             Am7/E
Na beleza desse amor maior que tudo
Dm7              Em7        Am7/E
O senhor é meu pastor e nada me faltará,
F/A                                      Bm11
Entrego tudo em suas mãos,Cristo cuida e ele cuida...

Dm7                  Em7         Am7/E
Entrego tudo a ele tudo, a ele tudo o que sou,
Dm7                 Em7                         Am7/E
A minha vida se é pra mim mesmo não é mais nada além de vento,
Dm7                  Em7         Am7/E
Entrego tudo a ele tudo, a ele tudo o que sou,
Dm7                 Em7                        Am7/E
A minha vida se é pra mim mesmo não é mais nada

Dm7               Em7           Am7/E
O mais tudo ele fará sei que posso descansar,
Dm7               Em7             Am7/E
Na beleza desse amor maior que tudo
Dm7              Em7        Am7/E
O senhor é meu pastor e nada me faltará,
F/A                                      Bm11
Entrego tudo em suas mãos,Cristo cuida e ele cuida...

Parte Final:

E|----------------------------------------------------------------|
B|----------------------------------------------------------------|
G|----------------------------------------------------------------|
D|---------------------------2-3-2-3-2-2-3------------------5-7---|
A|-------------2-3-2-3-2-2-3----------------5-7-5-7---7-7-7-------|
E|--3-5-3-3-5-----------------------------------------------------|

E|----------------------------------------------------------------|
B|----------------------------------------------------------------|
G|----------------------------------------------------------------|
D|---------------------------2-3-2-3-2-2-3------------------5-7---|
A|-------------2-3-2-3-2-2-3--------------------------7-7-7-------|
E|--3-5-3-3-5------------------------------5-6-5-6----------------|

E|----------------------------------------------------------------|
B|----------------------------------------------------------------|
G|----------------------------------------------------------------|
D|---------------------------2-3-2-3-2-2-3------------------5-7---|
A|-------------2-3-2-3-2-2-3----------------5-7-5-7---7-7-7-------|
E|--3-5-3-3-5-----------------------------------------------------|

E|---------------------------------------------------------------------------|
B|------------------------------------------------------5--------------------|
G|---------------------------------------------------------5-----------------|
D|---------------------------2-3-2-3-2-2-3------------------7-5--------------|
A|-------------2-3-2-3-2-2-3------------------------------------7-6-5--------|
E|--3-5-3-3-5------------------------------5-6-5-6-5-5-6-------------3-4-5---|

Se a tristeza dessa vida vier

Se liga no balanço irmão

E vai...entrega tudo irmão!

Clipes