busca

Eu Escolho Deus

Thalles Roberto

Tom: G
[Primeira Parte]

    G5                             C9
Senhor, eu nasci pra te chamar de Deus
                           Am7                C9
Eu nasci pra te chamar de pai e andar do seu lado
    G5                          C9
Senhor desde o ventre da minha mãe
                       Am7 
Eu sou povo exclusivo Seu
             C9               G5
Eu sou abençoado se vivo obediente

[Pré-Refrão]

         C7M
E|------------------------------------------|
B|--------0------------------0--------------|
G|----0-------0---------0--------0----------|
D|--2---2---2---2-----2---2----2---2--------|
A|-3-----------------3----------------------|
E|------------------------------------------|

         D6(11)
E|------------------------------------------|
B|--------0------------------0--------------|
G|----0-------0---------0--------0----------|
D|--4---4---4---4-----4---4----4---4--------|
A|-5-----------------5----------------------|
E|------------------------------------------|

C7M                        D6(11) C7M
    Mas todo dia o pecado vem, me chama
                       D6(11)     C7M
Todo dia as propostas vem, me chamam
                      D6(11)      C7M
Todo dia vêm as tentações, me chamam
                   D6(11)
Todo dia o pecado vem

[Refrão]

                G5      
Mas eu escolho Deus
                         C9
Eu escolho ser amigo de Deus
                        Am7
Eu escolho Cristo todo dia
                                      
já morri pra minha vida e agora eu vivo 
   C9
A vida de Deus!  

                G5      
Mas eu escolho Deus
                         C9
Eu escolho ser amigo de Deus
                        Am7
Eu escolho Cristo todo dia
                                      
Já morri pra minha vida e agora eu vivo 
   C9
A vida de Deus!  

[Terceira Parte]

    G5                              C9
Senhor, eu nasci pra te chamar de Amor
                           Am7
Eu nasci pra te chamar de pai 
                C9
E andar do seu lado
    G                           C9
Senhor desde o ventre da minha mãe
                       Am7 
Eu sou povo exclusivo Seu
             C9               G5
Eu sou abençoado se vivo obediente

[Pré-Refrão]

         C7M
E|------------------------------------------|
B|---------0------------------0-------------|
G|-----0-------0---------0--------0---------|
D|---2---2---2---2-----2---2----2---2-------|
A|-3-----------------3----------------------|
E|------------------------------------------|

         D6(11)
E|------------------------------------------|
B|---------0------------------0-------------|
G|-----0-------0---------0--------0---------|
D|---4---4---4---4-----4---4----4---4-------|
A|-5-----------------5----------------------|
E|------------------------------------------|

C7M                        D6(11) C7M
    Mas todo dia o pecado vem, me chama
                       D6(11)     C7M
Todo dia as propostas vem, me chamam
                      D6(11)      C7M
Todo dia vêm as tentações, me chamam
                   D6(11)
Todo dia o pecado vem

[Refrão]

                G5      
Mas eu escolho Deus
                         C9
Eu escolho ser amigo de Deus
                        Am7
Eu escolho Cristo todo dia
                                      
Já morri pra minha vida e agora eu vivo 
   C9
A vida de Deus!  

                G5      
Mas eu escolho Deus
                         C9
Eu escolho ser amigo de Deus
                        Am7
Eu escolho Cristo todo dia
                                      
já morri pra minha vida e agora eu vivo 
   C9
A vida de Deus!  

[Passagem]

   G5
E|-3--3--3----------------------------------|
B|-3--3--3----------------------------------|
G|-0--0--0----------------------------------|
D|-0--0--0-----------0----------------------|
A|-------------0--2-------------------------|
E|-3-3-3--3---------------------------------|

Clipes

Cifra Club Pro

Aproveite o Cifra Club com benefícios exclusivos e sem anúncios
7 dias grátis
Cifra Club Pro
Aproveite o Cifra Club com benefícios exclusivos e sem anúncios
7 dias grátis