busca

Father's House

Thalles Roberto

Tom: G
 Riff 1: Em
E|---------------------|
B|---------------------|
G|---------------------|
D|-------0-0h2---------|
A|---0h2---------------|
E|---------------------|

 Riff 2: Em7(9)
E|---------------------|
B|---------------3-----|
G|-------0--0--0-------|
D|--------4--4--4------|
A|---2/3---------------|
E|---------------------|

 Riff 3: Em9
E|---------------------|
B|----------0----------|
G|--------0--0---------|
D|-------4-4-----------|
A|---2/3---------------|
E|---------------------|

C9         G (Riff 1)
I miss his voice
C9          (Riff 2)
Calling me enter
  G
I feel so nostalgic
  Am7
To walk with You
    C9
Miss my friend,
Am7         (Riff 2)
Miss my Father

C9                   G (Riff 1)
Father, I know I do not deserve
C9                  (Riff 2)
But I have no where to go,
       G
I feel so nostalgic
     Am7 
To talk with you,
       C9     
Miss my Friend
 Am7       (Riff 2)
Miss my Father
 G Am7 G/B C9
I'm going back to the Father's house
G                G Am7 G G/B     C9
I want the love of my Father's house
      Am7                     (Riff 3)
And quiet rest in the arms of my Father

Clipes

Cifra Club Pro

Aproveite o Cifra Club com benefícios exclusivos e sem anúncios
Cifra Club Pro
Aproveite o Cifra Club com benefícios exclusivos e sem anúncios