busca

Meu Futuro

Thalles Roberto

Tom: E
[Intro] C#m7  G#m7 G#m7 C#m7  A7M  G#m7
        C#m7  F#m7  B7/4  B7

E|----------------------------------------------------0----------------------|
B|----------------5/4-----5--7b9r7-5-----5/4-----5/7-7----5-5-4--------------|
G|----8/9-9--8-8-9--------6---------4---4-------------5h6----6---------------|
D|----9/1111--9-9-69------6h7-----------6-----6/7-------------7--------------|
A|---------------------------------------------------------------------------|
E|---------------------------------------------------------------------------|

 A7M     G#m7          C#m7
Olho para o meu futuro
A7M          G#m7           C#m7
Simplesmente vejo a mão de Deus
     F#m7         B9
Mais nada, mais nada
A7M       G#m7        C#m7
Como será meu amanhã
A7M      G#m7          E
Eu só tenho uma garantia
  F#m7           B7/4  B7
É Deus, e mais nada
A7M
Quando o céu escuro
                    E7M
Traz a tempestade escondo
A7M
Eu sei muito bem
                        E7M
A força do Deus que eu sirvo
A7M                              G#m7    C#m7
Uma ordem dele faz do que não é possível
          F#m7                     B7/4       B7
Mais um milagre, a minha vida é um milagre, oohhh
               E
Quem anda com Deus
              E7M
Não vive por si só
E7                          A7M
É cuidado como criança de colo
                 B7
Que nos braços fortes do pai
                G#m7     C#m7
Descansa no aconchego do amor
          F#m7
Assim sou eu
B7/4  B7          E
O meu futuro é DEUS

E|------------------------------------------------------------|
B|--------------------------12--------------------------------|
G|------------------9-11h13----13p11-9----9-------------------|
D|-------------9-11--------------------11---9h11--------------|
A|------7-9h11------------------------------------------------|
E|--7-9-------------------------------------------------------|

A7M
Quando o céu escuro
                    E7M
Traz a tempestade escondo
A7M
Eu sei muito bem
                         E7M
A força do Deus que eu sirvo
A7M                              G#m7    C#m7
Uma ordem dele faz do que não é possível
          F#m7                     B7/4       B7
Mais um milagre, a minha vida é um milagre, oohhh
               E
Quem anda com Deus
              E7M
Não vive por si só
E7                          A7M
É cuidado como criança de colo
                 B7
Que nos braços fortes do pai
                G#m7     C#m7
Descansa no aconchego do amor
          F#m7
Assim sou eu
B7/4  B7          E
O meu futuro é DEUS

Clipes

Cifra Club Pro

Aproveite o Cifra Club com benefícios exclusivos e sem anúncios
Cifra Club Pro
Aproveite o Cifra Club com benefícios exclusivos e sem anúncios