busca

Quero As Águas

Thalles Roberto

Tom: D#
Riff 1:
E|-----------------------------------------------------------|
B|-----------------------------------------------------------|
G|-----------------------------------------------------------|
D|-----------------------------------------------------------|
A|-------1-1/3-----------------------------------------------|
E|---1/3-----------------------------------------------------|

Riff 2:
E|-3-3-3-3-3-3-3-3-3-3-3-3-3-3-3-3-1-----1-----1-----1--|
B|-4-4-4-4-3-3-3-3-4-4-4-4-3-3-3-3-1-1-1-1-1-1-1-1-1-1--|
G|------------------------------------------------------|
D|------------------------------------------------------|
A|------------------------------------------------------|
E|------------------------------------------------------|

Riff 3:
E|-3-3-3-3-3-3-3-3-3-3-3-3-3-3-3-3-1-----1--------------------------|
B|-4-4-4-4-3-3-3-3-4-4-4-4-3-3-3-3-1-1-1-1--------------------------|
G|-----------------------------------------4/5-3--------------------|
D|-----------------------------------------4-5---5---3-4-3---3-4-3--|
A|-------------------------------------------------6-------6--------|
E|------------------------------------------------------------------|

Riff 4:
E|-3-3-3-3-3-3-3-3-3-3-3-3-3-3-3-3-1-------1-3-4-6-6--------------|
B|-4-4-4-4-3-3-3-3-4-4-4-4-3-3-3-3-1-1-1-1-1---------4-6-4---4----|
G|---------------------------------------------------------5---5--|
D|----------------------------------------------------------------|
A|----------------------------------------------------------------|
E|----------------------------------------------------------------|

Cm7                 Gm        Cm7             Gm      Fm
La     ra   la  ra   la la    La   ra   la  ra   la la

Cm7       Gm              Cm7       Gm
      Chega     de viver na superficie
         Cm7      Gm           Fm
Quero os segredos que existem em Deus
Cm7       Gm                   Cm          Gm
      Quero      conhecer-te  mais profundo
         Cm7         Gm            Fm
Quero sua vida em minha vida como eu quero

G#7M      A#    Gm      G#7M
Quero as aguas eu quero as ag uas
Fm     Gm     G#7M      Gm
Quero o rio de De -e -e- eus
Fm     Gm            G#7M      Gm
Quero viver nas nascentes nas fontes
    Fm    Gm        G#7M
Onde brota vida de Deus

Cm7      Gm             Cm7         Gm
     Quero    Espirito Santo eu quero
           Cm7     Gm           Fm
Ser o seu melhor amigo, quero sua marca em mim
Cm7      Gm               Cm7     Gm
     Hoje      quero ver o seu milagre
           Cm7        Gm         Fm
Nunca mais serei o mesmo depois de tocar em ti

Cm7    Gm                   Cm7         Gm
     Pai      que nao haja espaco em mim
            Cm7      Gm           Fm
Pra mais nada alem de ti,   enche-me

Clipes

Cifra Club Pro

Aproveite o Cifra Club com benefícios exclusivos e sem anúncios
Cifra Club Pro
Aproveite o Cifra Club com benefícios exclusivos e sem anúncios