busca

Act Naturally

The Beatles

Tom: G
[Intro] D  G

E|-------------------------------------------3----3--3-------------------|
B|--------------3---------1-----7---------7--3h5--5--5p3--3--------------|
G|--0--------------0h2-------------7h9--------------------4--0-----------|
D|-----4--2--0---------------0-------------------------------------------|
A|------------------------------------------------------------------7\5-|
D|--------------------------------------------------------------/9-------|

G                           C
They're gonna put me in the movies
G                                    D
They're gonna make a big star out of me
G                                              C
They'll make a film about a man that's sad and lonely
    D                           G
And all I gotta do is Act Naturally

       D                      G
Well I bet you I'm gonna be a big star
        D                           G
I might win an Oscar  You can never tell
    D                      G
The movies gonna make me a big star
        A                      D
Because I can play the part so well

G                                      C
Well I hope you come and see me in the movies
G                                 D
Then I know that you will plainly see
    G                                  C
The biggest fool that ever hit the big time
    D                           G
And all I gotta do is Act Naturally

[Solo] D  G

E|-----------------------------------------------------------------------|
B|-----------------------------------------------------------------------|
G|-----------------------------------------------------------------------|
D|--------------0------------0---------5--5------------------------------|
A|---------------------3------------3--------7b5-------------------------|
D|--5--4--2--0-----/7-----0-----/7------------------7b9----5-------------|

G                                            C
We'll make a film about a man that's sad and lonely
G                                 D
And begging down upon his bended knee
G                                      C
I'll play the part  But I won't need rehearsing
  D                                  G
Becauses all I gotta do is Act Naturally

       D                      G
Well I bet you I'm gonna be a big star
        D                           G
I might win an Oscar  You can never tell
    D                          G
The movies gonna make me a big star
        A                      D
Because I can play the part so well

G                                      C
Well I hope you come and see me in the movies
G                                 D
Then I know that you will plainly see
    G                                  C
The biggest fool that ever hit the big time
    D                           G
And all I gotta do is Act Naturally

[Final] D  G

E|-----------------------------------------------------------------------|
B|-----------------------------------------------------------------------|
G|-----------------------------------------------------------------------|
D|--------------0------------4-------4--5--5-----------------------------|
A|---------------------3--------5/7-----------7b5------------------------|
D|--5--4--2--0-----/7-----0--------------------------7b9----5------------|

Clipes