busca

And I Love Her

The Beatles

Tom: A
[Intro]

F#m        C#m           F#m           C#m
I give her all my love    That's all I do
F#m        C#m             A             B7
And if you saw my love    You'd love her too
       E
 I love her

She gives me everything and tenderly
The kiss my lover brings
She brings to me
           E6
And I love her

C#m          B       C#m        G#m
A love like ours    could never die
C#m       G#m            B      B7
As long as I   have you near me

Bright are the stars that shine
Dark is the sky
I know this love of mine  
Will never die
And I love her

[Solo]

           Gm       Dm           Gm       Dm            Gm       Dm
E|------------------------------------------------------------------------|
B|------------------------------------------------------------------------|
G|--------------9--7/10-----------------9--9\7--------------------9--7/10-|
D|--5--7--8-----------------5--7--8-------------------5--7--8-------------|
A|------------------------------------------------------------------------|
E|------------------------------------------------------------------------|

           A#         C7               F                     Gm
E|--1---------------------------------------------------------------------|
B|------3-----------------------------------------------------------------|
G|----------3----2---2----------------------------------------------------|
D|---------------------\5----------------/7-------------------------------|
A|----------------------------3--3--5---------3----3----------------------|
E|--------------------------------------------------------5--3--1/3-------|

Bright are the stars that shine
Dark is the sky
I know this love of mine 
Will never die
And I love her

[Final]

             Gm              Dm              Gm              D
E|-------------------------------------------------------------|
B|-------------------------------------------------------------|
G|-------------------------------------------------------------|
D|-------------------------------------------------------------|
A|------8--7--5---------8--7--5---------8--7--5---------8--7--5|
E|---8---------------8---------------8---------------8---------|

Clipes