busca

And I Love Her

The Beatles

|------|------|------|------|------|1-1-1-1-|------|1-1-1-|------|
|------|------|------|------|------|--------|------|------|------|
|4-4-4-|4-4-4-|2-2-2-|2-2-2-|4-4-4-|--------|4-4-4-|------|4-4-4-|
|------|------|------|------|------|--------|------|------|------|

|1-1-1-|--------|--------|------|----------|------|1-1-1-|------|
|------|2-2-2-2-|4-4-4-4-|------|------1-4-|------|------|------|
|------|--------|--------|2-2-2-|2-2-2-----|4-4-4-|------|4-4-4-|
|------|--------|--------|------|----------|------|------|------|
  
|1-1-1-|------|1-1-1-|------|------|------|------|1-1-1-1-|--------|
|------|------|------|2-2-2-|4-4-4-|------|------|--------|4-4-4-4-|
|------|4-4-4-|------|------|------|2-2-2-|2-2-2-|--------|--------|
|------|------|------|------|------|------|------|--------|--------|
   
|1-1-1-1-|--------|1-1-1-1-|--------|--------|------1-|------|
|--------|1-1-1-1-|--------|1-1-1-1-|4-4-4-4-|4-4-4---|------|
|--------|--------|--------|--------|--------|--------|4-4-4-|
|--------|--------|--------|--------|--------|--------|------|
  
|1-1-1-1-|------|1-1-1-|------|1-1-1-|--------|--------|------|
|--------|------|------|------|------|2-2-2-2-|4-4-4-4-|------|
|--------|4-4-4-|------|4-4-4-|------|--------|--------|2-2-2-|
|--------|------|------|------|------|--------|--------|------|
  
|----------|------|2-2-2-2-|------|2-2-2-|------|2-2-2-|--------|
|------1-4-|0-0-0-|--------|0-0-0-|------|0-0-0-|------|3-3-3-3-|
|2-2-2-----|------|--------|------|------|------|------|--------|
|----------|------|--------|------|------|------|------|--------|
 
|0-0-0-0-|------|--------0-|------|2-2-2-|------|2-2-2-|------|
|--------|------|------2---|0-0-0-|------|0-0-0-|------|0-0-0-|
|--------|3-3-3-|3-3-3-----|------|------|------|------|------|
|--------|------|----------|------|------|------|------|------|
  
|2-2-2-|------|0-0-0-|------|------|2-2-2-2-|0-0-0-0-|2-2-2-2-|
|------|3-3-3-|------|------|------|--------|--------|--------|
|------|------|------|3-3-3-|3-3-3-|--------|--------|--------|
|------|------|------|------|------|--------|--------|--------|
 
|--------|2-2-2-2-|--------|0-0-0-0-|0-0-0-2-|------|2-2-2-2-|
|2-2-2-2-|--------|2-2-2-2-|--------|--------|0-0-0-|--------|
|--------|--------|--------|--------|--------|------|--------|
|--------|--------|--------|--------|--------|------|--------|

|------|2-2-2-|------|2-2-2-|--------|0-0-0-0-|------|--------0-|
|0-0-0-|------|0-0-0-|------|3-3-3-3-|--------|------|------2---|
|------|------|------|------|--------|--------|3-3-3-|3-3-3-----|
|------|------|------|------|--------|--------|------|----------|
 
|------|------|------|------|------|------|2-||
|0-0-0-|0-0-0-|------|------|0-0-0-|0-0-0-|--||
|------|------|3-3-3-|3-3-3-|------|------|--||
|------|------|------|------|------|------|--||
              


_______________________________________________________
Contribuição: Hare(hkoj@ig.com.br)

Clipes

Cifra Club Pro

Aproveite o Cifra Club com benefícios exclusivos e sem anúncios
Cifra Club Pro
Aproveite o Cifra Club com benefícios exclusivos e sem anúncios