busca

And Your Bird Can Sing

The Beatles

Tom: E
Intro: Riff 1(E)

E|--4--2--0--2--0------------------------0--2--4--4-4b5------------
B|-------------------4--5-4--2--0-------0--------------------------
G|----------------------------------2-1----------------------------
D|-----------------------------------------------------------------
A|-----------------------------------------------------------------
E|0-----------------------------------------------------------------

E|---------------------------------------4-------------------------
B|-------5----------5--7b9--7r5-----------5------------------------
G|-----------4--6-------------------6----4-------------------------
D|-----------------------------------------------------------------
A|-----------------------------------------------------------------
E|-----------------------------------------------------------------
    E
You tell me that you've got every thing you want

And your bird can sing
                    F#m  A            E
But you don't get me     You don't get me
E|---------------------------------------4-------------------------
B|-------5----------5--7b9--7r5-----------5------------------------
G|-----------4--6-------------------6----4-------------------------
D|-----------------------------------------------------------------
A|-----------------------------------------------------------------
E|-----------------------------------------------------------------

    E
You say you've seen seven wonders

And your bird is green
                   F#m  A
But you can't see me  You can't see me

 G#m               G+           B                  C#
When your prize posessions, start to weigh you down
 E           F#m7                Bsus4             B
Look in my direction, I'll be 'round, I'll be 'round (riff).
        G#m              G+                  B
E|--------------4-----------------3-------------------2--------------
B|---0--2--4-----4-2--0--0--2--4----4--2--0--0--2--4-----------------
G|-------------------------------------------------------------------
D|-------------------------------------------------------------------
A|-------------------------------------------------------------------
E|-------------------------------------------------------------------

             C#                    E
E|--------------------2--1-----------0--------------------------------
B|---4-2--0--0--2---------2--------0--0-------------------------------
G|--------------------------1-----1----1------------------------------
D|----------------------------3-2-------2-----------------------------
A|--------------------------------------------------------------------
E|--------------------------------------------------------------------

F#m
                              B
E|----------2--------2----------2-------------------------------------
B|---------2-2-----2--2-------4--4------------------------------------
G|-------2----2---2-----2---4-----4-----------------------------------
D|-----4-------4-4-------4-4-------4----------------------------------
A|--------------------------------------------------------------------
E|--------------------------------------------------------------------

     E
E|--4--2--0--2--0------------------------0--2--4--4-4b5---------------
B|-------------------4--5-4--2--0-------0-----------------------------
G|----------------------------------2-1-------------------------------
D|--------------------------------------------------------------------
A|--------------------------------------------------------------------
E|0-------------------------------------------------------------------

E|--------------------------------------------------------------------
B|-------5----------5--7b9--7r5---------------------------------------
G|-----------4--6-------------------6---------------------------------
D|--------------------------------------------------------------------
A|--------------------------------------------------------------------
E|--------------------------------------------------------------------

      F#m                B                          E
E|-----------7------------------7-9-11-12-12-12b14--------------------
B|---7-9--10---9--7-------7-9-10--------------------------------------
G|------------------9-8-9---------------------------------------------
D|--------------------------------------------------------------------
A|--------------------------------------------------------------------
E|--------------------------------------------------------------------

E|---7----------------------------------------------------------------
B|-----9--------------------------------------------------------------
G|-------9------------------------------------------------------------
D|--------------------------------------------------------------------
A|--------------------------------------------------------------------
E|--------------------------------------------------------------------

 G#m                G+      B                  C#
When your bird is broken, will it bring you down?
 E           F#m7            Bsus4           B
You may be awoken, I'll be 'round I'll be 'round

 E
You tell me that you've heard every sound there is

And your bird can swing
                    F#m A
But you can't hear me   You can't hear me

(segunda vez)
        G#m              G+                  B
E|--------------4-----------------3-------------------2--------------
B|---0--2--4-----4-2--0--0--2--4----4--2--0--0--2--4-----------------
G|-------------------------------------------------------------------
D|-------------------------------------------------------------------
A|-------------------------------------------------------------------
E|-------------------------------------------------------------------

             C#                    E
E|--------------------2--1-----------0--------------------------------
B|---4-2--0--0--2---------2--------0--0-------------------------------
G|--------------------------1-----1----1------------------------------
D|----------------------------3-2-------2-----------------------------
A|--------------------------------------------------------------------
E|--------------------------------------------------------------------

F#m
                              B
E|----------2--------2----------2-------------------------------------
B|---------2-2-----2--2-------4--4------------------------------------
G|-------2----2---2-----2---4-----4-----------------------------------
D|-----4-------4-4-------4-4-------4----------------------------------
A|--------------------------------------------------------------------
E|--------------------------------------------------------------------

 E
You tell me that you've heard every sound there is

And your bird can swing
                    F#m A
But you can't hear me   You can't hear me


final:(3x)E
E|--4--2--0--2--0-----------------------------------------------------
B|-------------------4--5---------------------------------------------
G|--------------------------------------------------------------------
D|--------------------------------------------------------------------
A|--------------------------------------------------------------------
E|0-------------------------------------------------------------------

    (A)
E|--------------------------------------------------------------------
B|----3---------------------------------------------------------------
G|----2---------------------------------------------------------------
D|----1---------------------------------------------------------------
A|--------------------------------------------------------------------
E|--------------------------------------------------------------------

E|--4--2--0--2--0------------------------0--2--4--4-4b5---------------
B|-------------------4--5-4--2--0-------0-----------------------------
G|----------------------------------2-1-------------------------------
D|--------------------------------------------------------------------
A|--------------------------------------------------------------------
E|--------------------------------------------------------------------

E|-------------------------------------------------------------------
B|-------5----------5--7b9--7r5--------------------------------------
G|-----------4--6-------------------6--------------------------------
D|-------------------------------------------------------------------
A|-------------------------------------------------------------------
E|-------------------------------------------------------------------

E|-----------7------------------7-9-11-12-12-12b14--------------------
B|---7-9--10---9--7-------7-9-10--------------------------------------
G|------------------9-8-9---------------------------------------------
D|--------------------------------------------------------------------
A|--------------------------------------------------------------------
E|--------------------------------------------------------------------

E|---7----------------------------------------------------------------
B|-----9--------------------------------------------------------------
G|-------9------------------------------------------------------------
D|--------------------------------------------------------------------
A|--------------------------------------------------------------------
E|--------------------------------------------------------------------

final:(3x)
E|--4--2--0--2--0-----------------------------------------------------
B|-------------------4--5---------------------------------------------
G|--------------------------------------------------------------------
D|--------------------------------------------------------------------
A|--------------------------------------------------------------------
E|0-------------------------------------------------------------------

    (A)
E|--------------------------------------------------------------------
B|----3---------------------------------------------------------------
G|----2---------------------------------------------------------------
D|----1---------------------------------------------------------------
A|--------------------------------------------------------------------
E|--------------------------------------------------------------------

Clipes