And Your Bird Can Sing

The Beatles

A
123
X02220
B
234
X24442
Bsus4
234
X24452
C#
234
X46664
E
123
022100
F#m
34
244222
F#m7
1234
2X222X
G#m
34
466444
G+
13
3X100X
Tom: G
Intro: Riff 1(E)

#1t1##1t2#E|--4--2--0--2--0------------------------0--2--4--4-4b5------------
B|-------------------4--5-4--2--0-------0--------------------------
G|----------------------------------2-1----------------------------
D|-----------------------------------------------------------------
A|-----------------------------------------------------------------
E|0-----------------------------------------------------------------#/1t2##/1t1#

#2t1##2t2#E|---------------------------------------4-------------------------
B|-------5----------5--7b9--7r5-----------5------------------------
G|-----------4--6-------------------6----4-------------------------
D|-----------------------------------------------------------------
A|-----------------------------------------------------------------
E|-----------------------------------------------------------------#/2t2##/2t1#
    E
You tell me that you've got every thing you want

And your bird can sing
                    F#m  A            E
But you don't get me     You don't get me
#3t1##3t2#E|---------------------------------------4-------------------------
B|-------5----------5--7b9--7r5-----------5------------------------
G|-----------4--6-------------------6----4-------------------------
D|-----------------------------------------------------------------
A|-----------------------------------------------------------------
E|-----------------------------------------------------------------#/3t2##/3t1#

    E
You say you've seen seven wonders

And your bird is green
                   F#m  A
But you can't see me  You can't see me

 G#m               G+           B                  C#
When your prize posessions, start to weigh you down
 E           F#m7                Bsus4             B
Look in my direction, I'll be 'round, I'll be 'round (riff).
#4t1#        G#m              G+                  B
#4t2#E|--------------4-----------------3-------------------2--------------
B|---0--2--4-----4-2--0--0--2--4----4--2--0--0--2--4-----------------
G|-------------------------------------------------------------------
D|-------------------------------------------------------------------
A|-------------------------------------------------------------------
E|-------------------------------------------------------------------#/4t2##/4t1#
#5t1#             C#                    E
#5t2#E|--------------------2--1-----------0--------------------------------
B|---4-2--0--0--2---------2--------0--0-------------------------------
G|--------------------------1-----1----1------------------------------
D|----------------------------3-2-------2-----------------------------
A|--------------------------------------------------------------------
E|--------------------------------------------------------------------#/5t2##/5t1#

F#m
                              B
#6t1##6t2#E|----------2--------2----------2-------------------------------------
B|---------2-2-----2--2-------4--4------------------------------------
G|-------2----2---2-----2---4-----4-----------------------------------
D|-----4-------4-4-------4-4-------4----------------------------------
A|--------------------------------------------------------------------
E|--------------------------------------------------------------------#/6t2##/6t1#

#7t1#     E
#7t2#E|--4--2--0--2--0------------------------0--2--4--4-4b5---------------
B|-------------------4--5-4--2--0-------0-----------------------------
G|----------------------------------2-1-------------------------------
D|--------------------------------------------------------------------
A|--------------------------------------------------------------------
E|0-------------------------------------------------------------------#/7t2##/7t1#

#8t1##8t2#E|--------------------------------------------------------------------
B|-------5----------5--7b9--7r5---------------------------------------
G|-----------4--6-------------------6---------------------------------
D|--------------------------------------------------------------------
A|--------------------------------------------------------------------
E|--------------------------------------------------------------------#/8t2##/8t1#
#9t1#      F#m                B                          E
#9t2#E|-----------7------------------7-9-11-12-12-12b14--------------------
B|---7-9--10---9--7-------7-9-10--------------------------------------
G|------------------9-8-9---------------------------------------------
D|--------------------------------------------------------------------
A|--------------------------------------------------------------------
E|--------------------------------------------------------------------#/9t2##/9t1#

#10t1##10t2#E|---7----------------------------------------------------------------
B|-----9--------------------------------------------------------------
G|-------9------------------------------------------------------------
D|--------------------------------------------------------------------
A|--------------------------------------------------------------------
E|--------------------------------------------------------------------#/10t2##/10t1#

 G#m                G+      B                  C#
When your bird is broken, will it bring you down?
 E           F#m7            Bsus4           B
You may be awoken, I'll be 'round I'll be 'round

 E
You tell me that you've heard every sound there is

And your bird can swing
                    F#m A
But you can't hear me   You can't hear me

#11t1#(segunda vez)
        G#m              G+                  B
#11t2#E|--------------4-----------------3-------------------2--------------
B|---0--2--4-----4-2--0--0--2--4----4--2--0--0--2--4-----------------
G|-------------------------------------------------------------------
D|-------------------------------------------------------------------
A|-------------------------------------------------------------------
E|-------------------------------------------------------------------#/11t2##/11t1#
#12t1#             C#                    E
#12t2#E|--------------------2--1-----------0--------------------------------
B|---4-2--0--0--2---------2--------0--0-------------------------------
G|--------------------------1-----1----1------------------------------
D|----------------------------3-2-------2-----------------------------
A|--------------------------------------------------------------------
E|--------------------------------------------------------------------#/12t2##/12t1#

F#m
                              B
#13t1##13t2#E|----------2--------2----------2-------------------------------------
B|---------2-2-----2--2-------4--4------------------------------------
G|-------2----2---2-----2---4-----4-----------------------------------
D|-----4-------4-4-------4-4-------4----------------------------------
A|--------------------------------------------------------------------
E|--------------------------------------------------------------------#/13t2##/13t1#

 E
You tell me that you've heard every sound there is

And your bird can swing
                    F#m A
But you can't hear me   You can't hear me


#14t1#final:(3x)E
#14t2#E|--4--2--0--2--0-----------------------------------------------------
B|-------------------4--5---------------------------------------------
G|--------------------------------------------------------------------
D|--------------------------------------------------------------------
A|--------------------------------------------------------------------
E|0-------------------------------------------------------------------#/14t2##/14t1#

#15t1#    (A)
#15t2#E|--------------------------------------------------------------------
B|----3---------------------------------------------------------------
G|----2---------------------------------------------------------------
D|----1---------------------------------------------------------------
A|--------------------------------------------------------------------
E|--------------------------------------------------------------------#/15t2##/15t1#

#16t1##16t2#E|--4--2--0--2--0------------------------0--2--4--4-4b5---------------
B|-------------------4--5-4--2--0-------0-----------------------------
G|----------------------------------2-1-------------------------------
D|--------------------------------------------------------------------
A|--------------------------------------------------------------------
E|--------------------------------------------------------------------#/16t2##/16t1#

#17t1##17t2#E|-------------------------------------------------------------------
B|-------5----------5--7b9--7r5--------------------------------------
G|-----------4--6-------------------6--------------------------------
D|-------------------------------------------------------------------
A|-------------------------------------------------------------------
E|-------------------------------------------------------------------#/17t2##/17t1#

#18t1##18t2#E|-----------7------------------7-9-11-12-12-12b14--------------------
B|---7-9--10---9--7-------7-9-10--------------------------------------
G|------------------9-8-9---------------------------------------------
D|--------------------------------------------------------------------
A|--------------------------------------------------------------------
E|--------------------------------------------------------------------#/18t2##/18t1#

#19t1##19t2#E|---7----------------------------------------------------------------
B|-----9--------------------------------------------------------------
G|-------9------------------------------------------------------------
D|--------------------------------------------------------------------
A|--------------------------------------------------------------------
E|--------------------------------------------------------------------#/19t2##/19t1#

#20t1#final:(3x)
#20t2#E|--4--2--0--2--0-----------------------------------------------------
B|-------------------4--5---------------------------------------------
G|--------------------------------------------------------------------
D|--------------------------------------------------------------------
A|--------------------------------------------------------------------
E|0-------------------------------------------------------------------#/20t2##/20t1#

#21t1#    (A)
#21t2#E|--------------------------------------------------------------------
B|----3---------------------------------------------------------------
G|----2---------------------------------------------------------------
D|----1---------------------------------------------------------------
A|--------------------------------------------------------------------
E|--------------------------------------------------------------------#/21t2##/21t1#
Composição: Colaboração e revisão: wilde juniorLEONARDO COSTAbob973 ferreirabob