busca

Bad Boy

The Beatles

Tom: B
  C7
A bad little kid moved into my neighborhood
He won't do nothing right just sitting down and looks so good
  F7
He don't want to go to school and learn to read and write
        C7
Just sits around the house and plays the rock and roll music all night
              G7
Well, he put some tacks on teachers chair
 F7
Puts some gum in little girl's hair
C7
Now, junior, behave yourself


Buys every rock and roll book on the magazine stand
Every dime that he get is lost to the jukebox man
              F7
Well he worries his teacher till at night she's ready to poop
         C7
From rocking and a-rolling spinning in a hula hoop
               G7
Well this rock and roll has got to stop
 F7
Junior's head is hard as rock
C7
Now, junior, behave yourself

(Solo)

 C7
Going to tell your mama you better do what she said
Get to the barber shop and get that hair cut off your head
 F7
Threw the canary and you fed it to the neighbors cat
        C7
You gave the cocker spaniel a bath in mother's Laundromat
         G7
Well, mama's head has got to stop
 F7
Junior's head is hard as rock
C7
Now, junior, behave yourself



     INTRO

      B
  e|7------ 7------ 7---7-- ----7--|------- ------- ------- -------|
  B|7-------7-------7---7-------7--|-------------------------------|
  G|8-------8-------8---8-------8--|-------------------------------|
  D|9-------9-------9---9-------9--|-------------------------------|
  A|9-------9-------9---9-------9--|-------------------------------|
  E|7-------7-------7---7-------7--|-------------------------------|

  e|------- ------- ------- -------|------- ------- ------- -------|
  B|-------------------------------|-------------------------------|
  G|-------------------------------|----7------9B11-11R9--7------7-|
  D|-------------------------------|---------9--------------9------|
  A|-------------------------------|-------------------------------|
  E|-------------------------------|-------------------------------|


                                      A
  e|7------ 7------ 7---7-- ----7--|------- ------- ------- -------|
  B|7-------7-------7---7-------7--|-------------------------------|
  G|8-------8-------8---8-------8--|----2---2-------2---2---2------|
  D|9-------9-------9---9-------9--|----2---2-------2---2---2------|
  A|9-------9-------9---9-------9--|----0---0-------0---0---0------|
  E|7-------8-------8---8-------8--|------------2------------------|

                                                                  A
  e|------- ------- ------- -------|------- ------- ------- -------|
  B|-------------------------------|---10---10------10--10--10-----|
  G|-------------------------------|------------11--------------11-|
  D|9------------------------------|-------------------------------|
  A|-------------------------------|-------------------------------|
  E|-------------------------------|-------------------------------|

  e|------- ------- ------- -------|------- ------- ------- -------|
  B|-------------------------------|-------------------------------|
  G|-------------------------------|-------------------------------|
  D|-------------------------------|-------------------------------|
  A|-------------------------------|----0---0-------0---0---0------|
  E|-------------------------------|------------2---------------2--|


    00:06
      B7
  e|------- ------- ------- -------|------- ------- ------- -------|
  B|-------------------------------|-------------------------------|
  G|-------------------------------|-------------------------------|
  D|7---7---7---7---7---7---7---7--|7---7---7---7---7---7---7---7--|
  A|9---9---9---9---9---9--11---9--|9---9---9---9---9---9--11---9--|
  E|7---7--10--11------------------|7---7--10--11------------------|
     bad    little  kid     moved   into        my  neighbourhood



  e|------- ------- ------- -------|------- ------- ------- -------|
  B|-------------------------------|-------------------------------|
  G|-------------------------------|-------------------------------|
  D|7---7---7---7---7---7---7---7--|7---7---7---7---7---7---7---7--|
  A|9---9---9---9---9---9--11---9--|9---9---9---9---9---9--11---9--|
  E|7---7--10--11------------------|7---7--10--11------------------|
                                                                He
  e|------- ------- ------- 7------|------- ------- ------- -------|
  B|-------------------------------|-------------------------------|
  G|--------7---9---9-B-11---------|11-R-9--7----------------------|
  D|----9--------------------------|------------9------------------|
  A|-------------------------------|-------------------------------|
  E|-------------------------------|-------------------------------|


  e|------- ------- ------- -------|------- ------- ------- -------|
  B|-------------------------------|-------------------------------|
  G|-------------------------------|-------------------------------|
  D|7---7---7---7---7---7---7---7--|7---7---7---7---7---7---7---7--|
  A|9---9---9---9---9---9--11---9--|9---9---9---9---9---9--11---9--|
  E|7---7--10--11------------------|7---7--10--11------------------|
    won't   nothing right  just     sitting down    looks       good
        do                                      and     so



  e|------- ------- ------- -------|------- ------- ------- -------|
  B|-------------------------------|-------------------------------|
  G|-------------------------------|-------------------------------|
  D|7---7---7---7---7---7---7---7--|7---7---7---7---7---7---7---7--|
  A|9---9---9---9---9---9--11---9--|9---9---9---9---9---9--11---9--|
  E|7---7--10--11------------------|7---7--10--11------------------|
                                                                He
  e|------- ------- ------- 7------|------- ------- ------- -------|
  B|-------------------------------|-------------------------------|
  G|--------7---9---9-B-11---------|11-R-9--7----------------------|
  D|----9--------------------------|------------9-~----------------|
  A|-------------------------------|-------------------------------|
  E|-------------------------------|-------------------------------|


    00:20
      E7
  e|------- ------- ------- -------|------- ------- ------- -------|
  B|-------------------------------|-------------------------------|
  G|-------------------------------|-------------------------------|
  D|0---0---0---0---0---0---0---0--|0---0---0---0---0---0---0---0--|
  A|2---2---2---2---2---2---4---2--|2---2---2---2---2---2---4---2--|
  E|0---0---3---4------------------|0---0---3---4------------------|
    don't   want    go      to  school  and learn   read    and write
                to                              to



  e|------- ------- ------- -------|------- ------- ------- -------|
  B|-------------------------------|-------------------------------|
  G|-------------------------------|-------------------------------|
  D|0---0---0---0---0---0---0---0--|0---0---0---0---0---0---0---0--|
  A|2---2---2---2---2---2---4---2--|2---2---2---2---2---2---4---2--|
  E|0---0---3---4------------------|0---0---3---4------------------|
                                                                Just
  e|----7-- ----7-~ 7---7-- ----7-~|7-~---- ----7-- 7-~---- -------|
  B|-------------------------------|-------------------------------|
  G|-------------------------------|-------------------------------|
  D|-------------------------------|-------------------------------|
  A|-------------------------------|-------------------------------|
  E|-------------------------------|-------------------------------|


      B7
  e|------- ------- ------- -------|------- ------- ------- -------|
  B|-------------------------------|-------------------------------|
  G|-------------------------------|-------------------------------|
  D|7---7---7---7---7---7---7---7--|7---7---7---7---7---7---7---7--|
  A|9---9---9---9---9---9--11---9--|9---9---9---9---9---9--11---9--|
  E|7---7--10--11------------------|7---7--10--11------------------|
    sits        the house   and plays   the rock roll       all night
        around                                and   music



  e|------- ------- ------- -------|------- ------- ------- -------|
  B|-------------------------------|-------------------------------|
  G|-------------------------------|-------------------------------|
  D|7---7---7---7---7---7---7---7--|7---7---7---7---7---7---7---7--|
  A|9---9---9---9---9---9--11---9--|9---9---9---9---9---9--11---9--|
  E|7---7--10--11------------------|7---7--10--11------------------|
                                                        Well    he
  e|----7-- ------- ------- -------|------- ------- ------7 -------|
  B|----10-----9-------------------|-------------------------------|
  G|-----------9B10R9-------7B8----|----------------9B11-----------|
  D|-------------------------------|9------------------------------|
  A|-------------------------------|-------------------------------|
  E|-------------------------------|-------------------------------|


      F#5                              E5
  e|------- ------- ------- -------|------- ------- ------- -------|
  B|-------------------------------|-------------------------------|
  G|3-----------3-----------3------|1-----------1-----------1------|
  D|4-----------4-----------4------|2-----------2-----------0------|
  A|4-----------4-----------4------|2-----------2-----------2------|
  E|2-----------2-----------2------|0-----------0-----------0------|
    puts   tacks    teacher's       Puts    gum in  little  hair
        some    on          chair       some            girl's

    00:38
      B7                                                  F#5
  e|------- ------- ------- -------|------- ------- ------- -------|
  B|0------------------------------|-------------------------------|
  G|2------------------------------|--------------------3-3-3---3--|
  D|1------------------------------|--------------------4-4-4---4--|
  A|2------------------------------|--------------------4-4-4---4--|
  E|-------------------------------|--------------------2-2-2---2-/|
            Now     junior,     behave      yourself

    00:42
      B7
  e|------- ------- ------- -------|------- ------- ------- -------|
  B|-------------------------------|-------------------------------|
  G|-------------------------------|-------------------------------|
  D|7---7---7---7---7---7---7---7--|7---7---7---7---7---7---7---7--|
  A|9---9---9---9---9---9--11---9--|9---9---9---9---9---9--11---9--|
  E|7---7--10--11------------------|7---7--10--11------------------|
    Buys    every   rock    roll    book    on  the magazine
                        and


  e|------- ------- ------- -------|------- ------- ------- -------|
  B|-------------------------------|-------------------------------|
  G|-------------------------------|-------------------------------|
  D|7---7---7---7---7---7---7---7--|7---7---7---7---7---7---7---7--|
  A|9---9---9---9---9---9--11---9--|9---9---9---9---9---9--11---9--|
  E|7---7--10--11------------------|7---7--10--11------------------|
    stand                                                   Every
  e|------- ------- ------- 7------|------- ------- ------- -------|
  B|-------------------------------|-------------------------------|
  G|--------7---9---9-B-11---------|11-R-9--7----------------------|
  D|----9--------------------------|------------9------------------|
  A|-------------------------------|-------------------------------|
  E|-------------------------------|-------------------------------|


  e|------- ------- ------- -------|------- ------- ------- -------|
  B|-------------------------------|-------------------------------|
  G|-------------------------------|-------------------------------|
  D|7---7---7---7---7---7---7---7--|7---7---7---7---7---7---7---7--|
  A|9---9---9---9---9---9--11---9--|9---9---9---9---9---9--11---9--|
  E|7---7--10--11------------------|7---7--10--11------------------|
    dime    that    get     Oooh!   lost    to  the jukebox     man
                he              is


  e|------- ------- ------- -------|------- ------- ------- -------|
  B|-------------------------------|-------------------------------|
  G|-------------------------------|-------------------------------|
  D|7---7---7---7---7---7---7---7--|7---7---7---7---7---7---7---7--|
  A|9---9---9---9---9---9--11---9--|9---9---9---9---9---9--11---9--|
  E|7---7--10--11------------------|7---7--10--11------------------|
                                                        Well    he
  e|----7-- ------- ------- -------|------- ------- ------- -------|
  B|---------9B10R9-7--------------|-------------------------------|
  G|------------------------7------|----7-----------9-B-11--7------|
  D|-------------------------------|9-----------9------------------|
  A|-------------------------------|-------------------------------|
  E|-------------------------------|-------------------------------|


    00:56
      E7
  e|------- ------- ------- -------|------- ------- ------- -------|
  B|-------------------------------|-------------------------------|
  G|-------------------------------|-------------------------------|
  D|0---0---0---0---0---0---0---0--|0---0---0---0---0---0---0---0--|
  A|2---2---2---2---2---2---4---2--|2---2---2---2---2---2---4---2--|
  E|0---0---3---4------------------|0---0---3---4------------------|
    worries     his teacher till    night   she's   ready   to  poop
                               at


  e|------- ------- ------- -------|------- ------- ------- -------|
  B|-------------------------------|-------------------------------|
  G|-------------------------------|-------------------------------|
  D|0---0---0---0---0---0---0---0--|0---0---0---0---0---0---0---0--|
  A|2---2---2---2---2---2---4---2--|2---2---2---2---2---2---4---2--|
  E|0---0---3---4------------------|0---0---3---4------------------|
                                                                From
  e|------- ---10-- ------- ---10--|12B1412B1412B1412B14R12-10-~---|
  B|---12-----------12-------------|-------------------------------|
  G|-------------------------------|-------------------------------|
  D|-------------------------------|-------------------------------|
  A|-------------------------------|-------------------------------|
  E|-------------------------------|-------------------------------|


      B7
  e|------- ------- ------- -------|------- ------- ------- -------|
  B|-------------------------------|-------------------------------|
  G|-------------------------------|-------------------------------|
  D|7---7---7---7---7---7---7---7--|7---7---7---7---7---7---7---7--|
  A|9---9---9---9---9---9--11---9--|9---9---9---9---9---9--11---9--|
  E|7---7--10--11------------------|7---7--10--11------------------|
    rocking and a   rolling         spinning    a   hula        hoop
                                            in


  e|------- ------- ------- -------|------- ------- ------- -------|
  B|-------------------------------|-------------------------------|
  G|-------------------------------|-------------------------------|
  D|7---7---7---7---7---7---7---7--|7---7---7---7---7---7---7---7--|
  A|9---9---9---9---9---9--11---9--|9---9---9---9---9---9--11---9--|
  E|7---7--10--11------------------|7---7--10--11------------------|
                                                        Well    this
  e|------- 5------ ------- -------|------- ------- ------- -------|
  B|--------5-H-7------------------|5-P-3-------3------------------|
  G|-------------------------------|--------4---------------4------|
  D|-------------------------------|-------------------------------|
  A|-------------------------------|-------------------------------|
  E|-------------------------------|-------------------------------|


    01:10
      F#5                              E5
  e|------- ------- ------- -------|------- ------- ------- -------|
  B|-------------------------------|-------------------------------|
  G|-------------------------------|-------------------------------|
  D|4-----------4-----------4------|2-----------2-----------0------|
  A|4-----------4-----------4------|2-----------2-----------0------|
  E|2-----------2-----------2------|0-----------0-----------0------|
    rock    roll    got to  stop    Junior's    is  hard    rock
        and     has                         head        as


      B7                                                  F#5
  e|------- ------- ------- -------|------- ------- ------- -------|
  B|0------------------------------|-------------------------------|
  G|2------------------------------|--------------------3-3-3---3--|
  D|1------------------------------|--------------------4-4-4---4--|
  A|2------------------------------|--------------------4-4-4---4--|
  E|-------------------------------|--------------------2-2-2---2-/|
            Now,    junior,     behave      yourself

    01:17
    SOLO

      B7
  e|------- ------- ------- -------|------- ------- ------- -------|
  B|-------------------------------|-------------------------------|
  G|-------------------------------|-------------------------------|
  D|-------------------------------|-------------------------------|
  A|5-------5-----------5----------|7-B-9---9-R-7----5-------------|
  E|----------------7-----------7--|--------------------7-------7--|


  e|------- ------- ------- -------|------- ------- ------- -------|
  B|-------------------------------|-------------------------------|
  G|-------------------------------|-------------------------------|
  D|------------------------9------|------------------------7---9--|
  A|5-------7-B-9------------------|9-R-7---5-------5-/-9----------|
  E|-------------------------------|------------7------------------|

      E7
  e|------- ------- ------- -------|------- ------- ------- -------|
  B|-------------------------------|-------------------------------|
  G|7-------7-------7-------7------|7-------7-------7---7-------7--|
  D|-------------------------------|-------------------------------|
  A|-------------------------------|-------------------------------|
  E|-------------------------------|-------------------------------|

      B7
  e|------- 7------ ------- -------|------- ------- ------- -------|
  B|-------------------------------|-------------------------------|
  G|7-9B11------------------9-B-11-|7------------------------------|
  D|-------------------------------|----9-------9---7H9P7---7------|
  A|-------------------------------|---------------------9------9-/|
  E|-------------------------------|-------------------------------|

      F#5                              E5
  e|------- ------- ------- -------|------- ------- ------- -------|
  B|-------------------------------|-------------------------------|
  G|-------------------------------|-------------------------------|
  D|-------------------------------|--------------------7----------|
  A|9----9--9-/-9-----9--9--9---9--|7----7--7---7-----------9--7---|
  E|-------------------------------|-----------------------------10|

      B7                                  F#5
  e|------- ------- ------- -------|------- ------- ------- -------|
  B|-------------------------------|-------------------------------|
  G|-------------------------------|----3---3---3---3---3---3---3--|
  D|-------------------------------|----4---4---4---4---4---4---4--|
  A|-------------------------------|----4---4---4---4---4---4---4--|
  E|7----7--7-/-7-----7--7-/7---7--|7-\-2---2---2---2---2---2---2--|


    01:39
      B7
  e|------- ------- ------- -------|------- ------- ------- -------|
  B|-------------------------------|-------------------------------|
  G|-------------------------------|-------------------------------|
  D|7---7---7---7---7---7---7---7--|7---7---7---7---7---7---7---7--|
  A|9---9---9---9---9---9--11---9--|9---9---9---9---9---9--11---9--|
  E|7---7--10--11------------------|7---7--10--11------------------|
    Gonna   tell    mama        you better  do      what        said
                your                                    she


  e|------- ------- ------- -------|------- ------- ------- -------|
  B|-------------------------------|-------------------------------|
  G|-------------------------------|-------------------------------|
  D|7---7---7---7---7---7---7---7--|7---7---7---7---7---7---7---7--|
  A|9---9---9---9---9---9--11---9--|9---9---9---9---9---9--11---9--|
  E|7---7--10--11------------------|7---7--10--11------------------|
                                                                Get
  e|------- ------- ------- 7------|------- ------- ------- -------|
  B|-------------------------------|-------------------------------|
  G|--------7---9---9-B-11---------|11-R-9--7H9P7------------------|
  D|----9--------------------------|--------------9-~--------------|
  A|-------------------------------|-------------------------------|
  E|-------------------------------|-------------------------------|


  e|------- ------- ------- -------|------- ------- ------- -------|
  B|-------------------------------|-------------------------------|
  G|-------------------------------|-------------------------------|
  D|7---7---7---7---7---7---7---7--|7---7---7---7---7---7---7---7--|
  A|9---9---9---9---9---9--11---9--|9---9---9---9---9---9--11---9--|
  E|7---7--10--11------------------|7---7--10--11------------------|
    to  the barber  shop    get that        cut off     your    head
                        and         hair


  e|------- ------- ------- -------|------- ------- ------- -------|
  B|-------------------------------|-------------------------------|
  G|-------------------------------|-------------------------------|
  D|7---7---7---7---7---7---7---7--|7---7---7---7---7---7---7---7--|
  A|9---9---9---9---9---9--11---9--|9---9---9---9---9---9--11---9--|
  E|7---7--10--11------------------|7---7--10--11------------------|

  e|------- ------- ------- -------|------- ------- ------- -------|
  B|-------------------------------|-------------------------------|
  G|--------9-B-11--9-B-11--9-B-11-|9-B-11--9-B-11--9B11R9--7------|
  D|-------------------------------|-------------------------------|
  A|-------------------------------|-------------------------------|
  E|-------------------------------|-------------------------------|


    01:53
      E7
  e|------- ------- ------- -------|------- ------- ------- -------|
  B|-------------------------------|-------------------------------|
  G|-------------------------------|-------------------------------|
  D|0---0---0---0---0---0---0---0--|0---0---0---0---0---0---0---0--|
  A|2---2---2---2---2---2---4---2--|2---2---2---2---2---2---4---2--|
  E|0---0---3---4------------------|0---0---3---4------------------|
    Threw   the canary      and you fed it  to  the neighbour's cat

  e|------- ------- ------- -------|------- ------- ------- -------|
  B|-------------------------------|-------------------------------|
  G|-------------------------------|-------------------------------|
  D|9------------------------------|-------------------------------|
  A|-------------------------------|-------------------------------|
  E|-------------------------------|-------------------------------|


  e|------- ------- ------- -------|------- ------- ------- -------|
  B|-------------------------------|-------------------------------|
  G|-------------------------------|-------------------------------|
  D|0---0---0---0---0---0---0---0--|0---0---0---0---0---0---0---0--|
  A|2---2---2---2---2---2---4---2--|2---2---2---2---2---2---4---2--|
  E|0---0---3---4------------------|0---0---3---4------------------|
                                                                You
  e|---12-- ------- ------- -------|------- ------- ------- -------|
  B|----------14B15-12-------------|-------------------------------|
  G|------------------------12B13--|-------------------------------|
  D|-------------------------------|14-~---------------------------|
  A|-------------------------------|-------------------------------|
  E|-------------------------------|-------------------------------|


      B7
  e|------- ------- ------- -------|------- ------- ------- -------|
  B|-------------------------------|-------------------------------|
  G|-------------------------------|-------------------------------|
  D|7---7---7---7---7---7---7---7--|7---7---7---7---7---7---7---7--|
  A|9---9---9---9---9---9--11---9--|9---9---9---9---9---9--11---9--|
  E|7---7--10--11------------------|7---7--10--11------------------|
    gave    cocker  spaniel     a   bath    mother's
        the                             in          Laundromat


  e|------- ------- ------- -------|------- ------- ------- -------|
  B|-------------------------------|-------------------------------|
  G|-------------------------------|-------------------------------|
  D|7---7---7---7---7---7---7---7--|7---7---7---7---7---7---7---7--|
  A|9---9---9---9---9---9--11---9--|9---9---9---9---9---9--11---9--|
  E|7---7--10--11------------------|7---7--10--11------------------|
                                                        Well,
  e|------- ------- ------- ----10-|12B1412B1412B1412B14R12 10-----|
  B|--------12------10--12---------|-------------------------------|
  G|-------------------------------|-------------------------------|
  D|-------------------------------|-------------------------------|
  A|-------------------------------|-------------------------------|
  E|-------------------------------|-------------------------------|


    02:08
      F#5                              E5
  e|------- ------- ------- -------|------- ------- ------- -------|
  B|-------------------------------|-------------------------------|
  G|3-----------3-----------3------|1-----------1-----------1------|
  D|4-----------4-----------4------|2-----------2-----------2-/----|
  A|4-----------4-----------4------|2-----------2-----------2-/----|
  E|2-----------2-----------2------|0-----------0-----------0------|
    mamma's head    got to  stop    Junior's    is  hard    rock
                has                     head            as


      B7                                              (.
  e|------- ------- ------- -------|------- ------- ------- -------|
  B|-------------------------------|-------------------------------|
  G|8------------------------------|----------------8--------------|
  D|7------------------------------|----------------7--------------|
  A|9------------------------------|----------------9--------------|
  E|7------------------------------|----------------7--------------|
            Now,    junior      behave   yourself

Clipes