busca

Carol

The Beatles

Tom: A
(intro)

E |------- ------- ------- -------|------- ------- ------- -------|
B |-------------------------------|------------------------5---7--|
G |-------------------------------|-------------------/6----------|
D |-------------------------------|-------------------------------|
A |-------------------------------|-------------------------------|
E |-------------------------------|-------------------------------|

   A7                              D7
E |5---5-- 5---5-- 5------ 5------|5---5-- 5---5-- 5------ 5------|
B |5---5---5---5---5-------5---7--|7---7---7---7---7-------5---7--|
G |-------------------/6----------|5---5---5---5---5--/6----------|
D |-------------------------------|-------------------------------|
A |-------------------------------|-------------------------------|
E |-------------------------------|-------------------------------|

   A7
E |5---5-- 5---5-- 5---5-- 5---5--|5------ ------- ------- -------|
B |5---5---5---5---5---5---5---5--|5------------------------------|
G |-------------------------------|----7-b-8---r---7-------7------|
D |-------------------------------|-------------------------------|
A |-------------------------------|-------------------------------|
E |-------------------------------|-------------------------------|
                                                      Oh,     Ca-
   D7
E |------- ------- ------- -------|------- ------- ------- -------|
B |-------------------------------|--------------------7----------|
G |-------------------------------|-------------------------------|
D |-------------------------------|-------------------------------|
A |-------------------------------|-------------------------------|
E |-------------------------------|-------------------------------|
      rol,                        let     steal   heart   a - way,
                              don't   them    your
   A7
E |------- ------- ------- -------|------- ------- ------- -------|
B |-------/8-----------7-------5--|-------------------------------|
G |-------/9-----------7-------5--|7-\-5--------------------------|
D |-------------------------------|--------7---7-------7----------|
A |-------------------------------|-------------------------------|
E |-------------------------------|-------------------------------|
                                                      Well, I've
   E7                              D7
E |------- ------- ------- -------|------- ------- ------- -------|
B |-------------------------------|-------------------------------|
G |-------------------------------|-------------------------------|
D |-------------------------------|-------------------------------|
A |-------------------------------|-------------------------------|
E |-------------------------------|-------------------------------|
  got to  learn to dance  if  it  takes me all        night and day

   A7
E |------- ------- ------- -------|------- ------- ------- -------|
B |-------/8-----------7----------|-------------------------------|
G |-------/9-----------7-------5--|7-\-5--------------------------|
D |-------------------------------|--------7---7-------7----------|
A |-------------------------------|-------------------------------|
E |-------------------------------|-------------------------------|
                                                          Well, come
(verse)
   A7
E |------- ------- ------- -------|------- ------- ------- -------|
B |-------------------------------|---------------------------/8--|
G |-------------------------------|---------------------------/9--|
D |-------------------------------|-------------------------------|
A |-------------------------------|-------------------------------|
E |-------------------------------|-------------------------------|
  in- to  my  machine, so we can  move on     out

E |------- ------- ------- -------|------- ------- ------- -------|
B |--------7----------------------|-------------------------------|
G |--------7---5---7---5----------|-------------------------------|
D |------------------------7---5--|7---7-------7------------------|
A |-------------------------------|-------------------------------|
E |-------------------------------|-------------------------------|
                                                      I   know a

E |------- ------- ------- -------|------- ------- ------- -------|
B |-------------------------------|-------------------/8------/8--|
G |-------------------------------|-------------------/9------/9--|
D |-------------------------------|-------------------------------|
A |-------------------------------|-------------------------------|
E |-------------------------------|-------------------------------|
  jumpin' little  joint   we  can jump and    shout
                      where

E |------- ------- ------- -------|------- ------- ------- -------|
B |----7-------5---7--------------|-------------------------------|
G |----7-------5---7---5----------|-------------------------------|
D |------------------------7---5--|7---7-------7------------------|
A |-------------------------------|-------------------------------|
E |-------------------------------|-------------------------------|
                                                     It's not too
   D7
E |------- ------- ------- -------|------- ------- ------- -------|
B |-------------------------------|-------------------------------|
G |-------------------------------|------------------------5---7--|
D |-------------------------------|--------------------7----------|
A |-------------------------------|-------------------------------|
E |-------------------------------|-------------------------------|
  far back on the highway, not so long a      ride

E |------- ----8-- ------- -------|------- ------- ------- -------|
B |----7---9b10----10----------10-|12--10------10-----------------|
G |9-------------------9----------|--------12b13------------------|
D |-------------------------------|-------------------------------|
A |-------------------------------|-------------------------------|
E |-------------------------------|-------------------------------|
                                                      Well,   you
   A7
E |------- ------- ------- -------|------- ------- ------- -------|
B |-------------------------------|----------------------------10-|
G |-------------------------------|------------------7/9----------|
D |-------------------------------|-------------------------------|
A |-------------------------------|-------------------------------|
E |-------------------------------|-------------------------------|
  take your car along,    and you park it outside

E |----7-- 5------ ------- -------|------- ------- ------- -------|
B |8-----------8---7---5----------|-------------------------------|
G |------------------------7---9-9\7-------5----------------------|
D |-------------------------------|------------7-------7----------|
A |-------------------------------|-------------------------------|
E |-------------------------------|-------------------------------|
                                                      A   little
   E7
E |------- ------- ------- -------|------- ------- ------- ----8b9|
B |-------------------------------|-------------------------------|
G |-------------------------------|-------------------------------|
D |-------------------------------|-------------------------------|
A |-------------------------------|-------------------------------|
E |-------------------------------|-------------------------------|
  cutie takes your hat,   you can thank   her, ma'am
                     and

E |------- ------- ------- -------|------- ------- ------- -------|
B |10------8---10--12--10--8b9----|-------------------------------|
G |9---9--------------------------|----9-\-7---5------------------|
D |-------------------------------|-------------------------------|
A |-------------------------------|-------------------------------|
E |-------------------------------|-------------------------------|
                                                      Well, every
   A7
E |------- ------- ------- -------|------- ------- ------- -------|
B |-------------------------------|-------------------/8------/8--|
G |-------------------------------|-------------------/9------/9--|
D |-------------------------------|-------------------------------|
A |-------------------------------|-------------------------------|
E |-------------------------------|-------------------------------|
  time    gonna   drive,  find    joint is    jammed
      you're          you'll  the

E |------- ------- ------- -------|------- ------- ------- -------|
B |----7-------5---7--------------|------------------------5---7--|
G |----7-------5---7---5----------|-------------------/6----------|
D |------------------------7---5--|7---7-------7------------------|
A |-------------------------------|-------------------------------|
E |-------------------------------|-------------------------------|

(refrão)
   A7                              D7
E |5---5-- 5---5-- 5------ 5---5--|5---5-- 5---5-- 5------ 5------|
B |5---5---5---5---5-------5---7--|7---7---7---7---7-------5---7--|
G |-------------------/6----------|5---5---5---5---5--/6----------|
D |-------------------------------|-------------------------------|
A |-------------------------------|-------------------------------|
E |-------------------------------|-------------------------------|

   A7
E |5---5-- 5---5-- 5---5-- 5---5--|5------ ------- ------- -------|
B |5---5---5---5---5---5---5---5--|5---7-b-8----------------------|
G |-------------------------------|----7-b-8----------------------|
D |-------------------------------|-------------------------------|
A |-------------------------------|-------------------------------|
E |-------------------------------|-------------------------------|
                                                      Oh,     Ca-
  D7
E |------- ------- ------- -------|------- ------- ------- -------|
B |------------5------------------|-------------------------------|
G |------------5------------------|-------------------------------|
D |-------------------------------|-------------------------------|
A |-------------------------------|-------------------------------|
E |-------------------------------|-------------------------------|
      rol,                        let     steal   heart   a - way,
                              don't   them    your
   A7
E |------- ------- ------- -------|------- ------- ------- -------|
B |-------/8-----------7-------5--|-------------------------------|
G |-------/9-----------7-------5--|7-\-5--------------------------|
D |-------------------------------|--------7---7-------7----------|
A |-------------------------------|-------------------------------|
E |-------------------------------|-------------------------------|
                                                      Well, I've
   E7                              D7
E |------- ------- ------- -------|------- ------- ------- -------|
B |-------------------------------|-------------------------------|
G |-------------------------------|-------------------------------|
D |-------------------------------|-------------------------------|
A |-------------------------------|-------------------------------|
E |-------------------------------|-------------------------------|
  got to  learn to dance  if  it  takes me all        night and day

   A7
E |------- ------- ------- -------|------- ------- ------- ---/5--|
B |-------/8-----------7-------5--|---------------------------/5--|
G |-------/9-----------7-------5--|7-\-5--------------------------|
D |-------------------------------|--------7---7-------7----------|
A |-------------------------------|-------------------------------|
E |-------------------------------|-------------------------------|

(refrão) (solo)
   A7                              D7
E |----5-- 5---5-- 5------ -------|5---5-- 5---5-- 5------ -------|
B |----5---5---5---5---7---5------|7---7---7---7---7--------------|
G |--------------------7---5------|5---5---5---5---5---7---5------|
D |----------------------------7--|----------------------------7--|
A |-------------------------------|-------------------------------|
E |-------------------------------|-------------------------------|

   A7
E |------- ------- ------- -------|------- ------- ------- -------|
B |-------------------------------|-------------------------------|
G |5---7---5-------5---7---5------|----7-b-9-----r-----7-------9-9\
D |------------7---------------7--|-------------------------------|
A |-------------------------------|-------------------------------|
E |-------------------------------|-------------------------------|

   D7
E |------- ------- ------- -------|------- 5---8b- 5------ ----5--|
B |-------------------------------|5---7---------------5-/-7------|
G |7---5-----------5-------5---7--|-------------------------------|
D |--------7----------------------|-------------------------------|
A |-------------------------------|-------------------------------|
E |-------------------------------|-------------------------------|

   A7
E |7-\-5-- ------- ------- -------|5---5-- 5------ ------- 5/-----|
B |--------8-\-5---5--------------|5---5---5---------------5/-----|
G |--------------------7---5------|------------7---5--------------|
D |----------------------------7--|-------------------------------|
A |-------------------------------|-------------------------------|
E |-------------------------------|-------------------------------|

   E7                              D7
E |12----- 10----- 9-\-7-- 7-\-5--|5-\-4-- 4-\-2-- 2-\-0-- 0------|
B|14\-12--12\-10--10\-9---9-\-7--|7-\-5---5-\-3---3-\-2---2------|
G |-------------------------------|-------------------------------|
D |-------------------------------|-------------------------------|
A |-------------------------------|-------------------------------|
E |-------------------------------|-------------------------------|

   A7
E |------- ------- ------- -------|------- ------- ------- -------|
B |----------------------------10-|--------7p5-----7p5------------|
G |------------6-/-7---9-------9--|-------------------------------|
D |----7--------------------------|-------------------------------|
A |----7--------------------------|-------------------------------|
E |-------------------------------|-------------------------------|
                                                      Well, if you
(verse)
   A7
E |------- ------- ------- -------|------- ------- ------- -------|
B |-------------------------------|-------------------/8------/8--|
G |-------------------------------|-------------------/9------/9--|
D |-------------------------------|-------------------------------|
A |-------------------------------|-------------------------------|
E |-------------------------------|-------------------------------|
  want to hear some music like the boys all   play

E |------- ------- ------- -------|------- ------- ------- -------|
B |----7-------5---7--------------|-------------------------------|
G |----7-------5---7---5----------|-------------------------------|
D |------------------------7---5--|7---7-------7------------------|
A |-------------------------------|-------------------------------|
E |-------------------------------|-------------------------------|
                                                      Hold    tight,

E |------- ------- ------- -------|------- ------- ------- -------|
B |-------------------------------|-------------------/8------/8--|
G |-------------------------------|-------------------/9------/9--|
D |-------------------------------|-------------------------------|
A |-------------------------------|-------------------------------|
E |-------------------------------|-------------------------------|
          tap your foot,  let them carry  a - way
                      don't

E |------- ------- ------- -------|------- ------- ------- -------|
B |----7-------5---7--------------|-------------------------------|
G |----7-------5---7---5----------|-------------------------------|
D |------------------------7---5--|7---7-------7------------------|
A |-------------------------------|-------------------------------|
E |-------------------------------|-------------------------------|
                                                      Don't let the

   D7
E |------- ------- ------- -------|------- ------- ------- -------|
B |-------------------------------|---------------------------/8--|
G |-------------------------------|------------------9/11-----/9--|
D |-------------------------------|-------------------------------|
A |-------------------------------|-------------------------------|
E |-------------------------------|-------------------------------|
  heat o  -   vercome you, 'cause play so     loud
                              they

E |------- ------- ------- -------|------- ------- ------- -------|
B |----7-------5------------------|7-----------5------------------|
G |----7-------5---7---5----------|7-----------5------------------|
D |------------------------7---5--|--------7----------------------|
A |-------------------------------|-------------------------------|
E |-------------------------------|-------------------------------|
                                                      While   the
   A7
E |------- ------- ------- -------|------- ------- ------- -------|
B |-------------------------------|-------------------/8------/8--|
G |-------------------------------|-------------------/9------/9--|
D |-------------------------------|-------------------------------|
A |-------------------------------|-------------------------------|
E |-------------------------------|-------------------------------|
  mu- sic will    treat   when    get a       crowd
                      you     they

E |------- ------- ------- -------|------- ------- ------- -------|
B |----7-------5------------------|-------------------------------|
G |----7-------5---7p5---------5--|-------------------------------|
D |------------------------7------|7---7-------7------------------|
A |-------------------------------|-------------------------------|
E |-------------------------------|-------------------------------|
                                                      Well,   you
   E7
E |------- ------- ------- -------|------- ------- ------- -------|
B |-------------------------------|-------------------/8------/8--|
G |-------------------------------|-------------------/9------/9--|
D |-------------------------------|-------------------------------|
A |-------------------------------|-------------------------------|
E |-------------------------------|-------------------------------|
  can dance,  I   know    you will,       you thought

E |------- ------- ------- -------|------- ------- ------- -------|
B |----7-------5------------------|8-\-7-------5------------------|
G |----7-------5---7---5-------5--|8-\-7-------5------------------|
D |------------------------7------|-------------------------------|
A |-------------------------------|-------------------------------|
E |-------------------------------|-------------------------------|
                                                      I   got my
   A7
E |------- ------- ------- -------|------- ------- ------- -------|
B |-------------------------------|-------------------/8------/8--|
G |-------------------------------|-------------------/9------/9--|
D |-------------------------------|-------------------------------|
A |-------------------------------|-------------------------------|
E |-------------------------------|-------------------------------|
  eyes    on  you ba- by, 'cause  dance so    good
                              you

E |------- ------- ------- -------|------- ------- ------- -------|
B |----7-------5---7--------------|------------------------5---7--|
G |----7-------5---7---5----------|-------------------/6-------7--|
D |------------------------7---5--|7---7-------7------------------|
A |-------------------------------|-------------------------------|
E |-------------------------------|-------------------------------|

(refrão)
   A7                              D7
E |5---5-- 5---5-- 5------ 5------|5---5-- 5---5-- 5------ 5------|
B |5---5---5---5---5-------5---7--|7---7---7---7---7-------5---7--|
G |-------------------/6----------|5---5---5---5---5--/6----------|
D |-------------------------------|-------------------------------|
A |-------------------------------|-------------------------------|
E |-------------------------------|-------------------------------|

   A7
E |5---5-- 5---5-- 5---5-- 5---5--|------- ------- ------- -------|
B |5---5---5---5---5---5---5---5--|-------------------------------|
G |-------------------------------|-------------------------------|
D |-------------------------------|-------------------------------|
A |-------------------------------|-------------------------------|
E |-------------------------------|-------------------------------|

   D7
E |------- ----7p5 ------- -------|------- ------- ------- -------|
B |------------7p5----------------|-------------------------------|
G |-------------------------------|-------------------------------|
D |-------------------------------|-------------------------------|
A |-------------------------------|-------------------------------|
E |-------------------------------|-------------------------------|
                            Don't let     steal   heart   a - way,
                                      them    your
   A7
E |------- ----7p5 ------- -------|----5-- ------- ------- -------|
B |------------7p5----------------|----5-------5------------------|
G |-------------------------------|-------------------------------|
D |-------------------------------|-------------------------------|
A |-------------------------------|-------------------------------|
E |-------------------------------|-------------------------------|
                                                      Well, I've

   E7                              D7
E |------- ------- ------- -------|------- ------- ------- -------|
B |-------------------------------|-------------------------------|
G |-------------------------------|-------------------------------|
D |-------------------------------|-------------------------------|
A |-------------------------------|-------------------------------|
E |-------------------------------|-------------------------------|
  got to  learn to dance  if  it  takes me all        night and day

   A7
E |------- ------- ------- -------|------- ------- ------- -------|
B |-----------/8-------7-------5--|-------------------------------|
G |-----------/9-------7-------5--|7-\-5--------------------------|
D |-------------------------------|--------7---7-----------7------|
A |-------------------------------|-------------------------------|
E |-------------------------------|-------------------------------|
                                                      Well, I've
(outro)
   E7                              D7
E |------- ------- ------- -------|------- ------- ------- -------|
B |-------------------------------|-------------------------------|
G |-------------------------------|-------------------------------|
D |-------------------------------|-------------------------------|
A |-------------------------------|-------------------------------|
E |-------------------------------|-------------------------------|
  got to  learn to dance  if  it  takes you all       night and day

   A7                                                      A6
E |------- ------- ------- -------|------- ------- ------- -------|
B |--------5-------5---5/7\5---5--|-------------------------------|
G |--------5---7---5---5/7\5---5--|-------------------------------|
D |----7--------------------------|7---5---6---7------------------|
A |-------------------------------|-------------------------------|
E |-------------------------------|-------------------------------

Clipes