busca

Catswalk

The Beatles

Tom: G#
(verso)

    Gm              D#                A#              D
E|--------------3------------------|---------------------------------|
B|---------3-------4---------------|-6---------------3---------------|
G|------3--------------------------|---------------------------------|
D|-5-------------------------------|---------------------------------|
A|---------------------------------|---------------------------------|
E|---------------------------------|---------------------------------|

    Gm              Cm                D#              Gm
E|--------------3------------------|---------------------------------|
B|---------3-----------------------|-4----3--------------------------|
G|------3----------5---------------|---------------------------------|
D|-5-------------------------------|--------------5------------------|
A|---------------------------------|---------------------------------|
E|---------------------------------|---------------------------------|

                    D#                A#              D
E|--------------3------------------|---------------------------------|
B|---------3-------4---------------|-6---------------3---------------|
G|------3--------------------------|---------------------------------|
D|-5-------------------------------|---------------------------------|
A|---------------------------------|---------------------------------|
E|---------------------------------|---------------------------------|

    Gm              Cm                D#              Gm
E|--------------3------------------|---------------------------------|
B|---------3-----------------------|-4----3--------------------------|
G|------3----------5---------------|---------------------------------|
D|-5-------------------------------|--------------5------------------|
A|---------------------------------|---------------------------------|
E|---------------------------------|---------------------------------|

(ponte)
    C#              Fm                A#              G#
E|---------------------------------|---------4-----------------------|
B|-2----1---------------------8----|-6-----------------------4-----4-|
G|-----------------------5---------|---------------------5-------5---|
D|-----------3---------------------|---------------------------------|
A|---------------------------------|---------------------------------|
E|---------------------------------|---------------------------------|
    C                 Fm              Bbm
E|-----------------|---------------------------------|
B|-5---------------|---------------------------------|
G|-----------------|-5----5----5-----6----6----6-----|
D|-----------------|-6----6----6-----7----7----7-----|
A|-----------------|---------------------------------|
E|-----------------|---------------------------------|

    Fm              F#m
E|---------------------------------|
B|---------------------------------|
G|-5---------------6---------------|
D|-6---------------7---------------|
A|---------------------------------|
E|---------------------------------|

    Gm              D#                Gm              D#
E|-3-------3-------6---------------|-3----3----3-----6---------------|
B|-3-------3-------8---------------|-3----3----3-----8---------------|
G|---------------------------------|---------------------------------|
D|---------------------------------|---------------------------------|
A|---------------------------------|---------------------------------|
E|---------------------------------|---------------------------------|

    A                                 D
E|-5----5----5-----5----5-\--------|-10----------12--10--------------|
B|-5----5----5-----5----5-\--------|---------------------------------|
G|---------------------------------|---------------------------------|
D|---------------------------------|---------------------------------|
A|---------------------------------|---------------------------------|
E|---------------------------------|---------------------------------|

(verso)
E|--------------3------------------|---------------------------------|
B|---------3-------4---------------|-6---------------3---------------|
G|------3--------------------------|---------------------------------|
D|-5-------------------------------|---------------------------------|
A|---------------------------------|---------------------------------|
E|---------------------------------|---------------------------------|

E|--------------3------------------|---------------------------------|
B|---------3-----------------------|-4----3--------------------------|
G|------3----------5---------------|---------------------------------|
D|-5-------------------------------|--------------5------------------|
A|---------------------------------|---------------------------------|
E|---------------------------------|---------------------------------|

E|--------------3------------------|---------------------------------|
B|---------3-------4---------------|-6---------------7---------------|
G|------3--------------------------|---------------------------------|
D|-5-------------------------------|---------------------------------|
A|---------------------------------|---------------------------------|
E|---------------------------------|---------------------------------|

E|--------------3------------------|---------------------------------|
B|---------3-----------------------|-4----3--------------------------|
G|------3----------5---------------|---------------------------------|
D|-5-------------------------------|--------------5------------------|
A|---------------------------------|---------------------------------|
E|---------------------------------|---------------------------------|

(ponte)
E|---------------------------------|---------4-----------------------|
B|-2----1---------------------8----|-6-----------------------4-----4-|
G|-----------------------5---------|---------------------5-------5---|
D|-----------3---------------------|---------------------------------|
A|---------------------------------|---------------------------------|
E|---------------------------------|---------------------------------|

E|-----------------|---------------------------------|
B|-5---------------|---------------------------------|
G|-----------------|-5----5----5-----6----6----6-----|
D|-----------------|-6----6----6-----7----7----7-----|
A|-----------------|---------------------------------|
E|-----------------|---------------------------------|

E|---------------------------------|
B|---------------------------------|
G|-5---------------6---------------|
D|-6---------------7---------------|
A|---------------------------------|
E|---------------------------------|

E|-3-------3-------6---------------|-3----3----3-----6---------------|
B|-3-------3-------8---------------|-3----3----3-----8---------------|
G|---------------------------------|---------------------------------|
D|---------------------------------|---------------------------------|
A|---------------------------------|---------------------------------|
E|---------------------------------|---------------------------------|

E|-5----5----5-----5----5-\--------|-10----------12--10--------------|
B|-5----5----5-----5----5-\--------|---------------------------------|
G|---------------------------------|---------------------------------|
D|---------------------------------|---------------------------------|
A|---------------------------------|---------------------------------|
E|---------------------------------|---------------------------------|

(verso)
E|--------------3------------------|---------------------------------|
B|---------3-------4---------------|-6---------------3---------------|
G|------3--------------------------|---------------------------------|
D|-5-------------------------------|---------------------------------|
A|---------------------------------|---------------------------------|
E|---------------------------------|---------------------------------|

E|--------------3------------------|---------------------------------|
B|---------3-----------------------|-4----3--------------------------|
G|------3----------5---------------|---------------------------------|
D|-5-------------------------------|--------------5------------------|
A|---------------------------------|---------------------------------|
E|---------------------------------|---------------------------------|

E|--------------3------------------|---------------------------------|
B|---------3-------4---------------|-6---------------7---------------|
G|------3--------------------------|---------------------------------|
D|-5-------------------------------|---------------------------------|
A|---------------------------------|---------------------------------|
E|---------------------------------|---------------------------------|

E|--------------3------------------|---------------------------------|
B|---------3-----------------------|-4----3--------------------------|
G|------3----------5---------------|---------------------------------|
D|-5-------------------------------|-----------------5-------3-------|
A|---------------------------------|---------------------------------|
E|---------------------------------|---------------------------------|

E|-----------------2----2----------|-3-------------------------------|
B|-----------------3----3----------|-3-------------------------------|
G|---------------------------------|---------------------------------|
D|-1-------0-----------------------|---------------------------------|
A|---------------------------------|---------------------------------|
E|---------------------------------|---------------------------------|

Clipes

Cifra Club Pro

Aproveite o Cifra Club com benefícios exclusivos e sem anúncios
7 dias grátis
Cifra Club Pro
Aproveite o Cifra Club com benefícios exclusivos e sem anúncios
7 dias grátis