busca

Devil In Her Heart

The Beatles

Tom: G
(intro) Am  D G

(solo - intro e ao decorrer da música)
E|------8--7--5--3-5-3-----------------------|
B|----10--8--7--5-7-5---7-7-5-3-3-5-3-3-2-1-0|
G|---------------------7-7-5-4-4-5-4-4-3-2-0-|
D|-------------------------------------------|
A|-------------------------------------------|
E|-------------------------------------------|

                              Am
She's got the devil in her heart
D7                      G
But her eyes they tantalize
                               Am
She's gonna tear your heart apart
D7                         G          (passagem rápida) G G Am Am Bm Bm C
oh her lips are really thrilling

E|-------------------------------|
B|--------0---0---1---1---3---3--|
G|--------0---0---2---2---4---4--|
D|-------------------------------|
A|-------------------------------|
E|-------------------------------|

C
I'll take my chances
Cm
for romance is
G                 (passagem rápida) G G Am Am Bm Bm C
So important to me

E|-------------------------------|
B|--------0---0---1---1---3---3--|
G|--------0---0---2---2---4---4--|
D|-------------------------------|
A|-------------------------------|
E|-------------------------------|

C
She'll never hurt me
Cm
She won't desert me
 A                        D7
She's an angel sent to me

                               Am
She's got the devil in her heart
     D7               G
no,no this I can't believe
                                 Am
She's gonna tear your heart apart
     D                     G     (passagem rápida) G G Am Am Bm Bm C
no, no nay will she deceive

E|-------------------------------|
B|--------0---0---1---1---3---3--|
G|--------0---0---2---2---4---4--|
D|-------------------------------|
A|-------------------------------|
E|-------------------------------|

C                          Cm
I can't believe that she'll ever ever go
G
Not when she hugs and says she loves me so
C
She'll never hurt me
Cm
She won't desert me
A                    D7
Listen can't you see

      Am
She's got the...

C                  Cm
Don't take chances if your romance is
G                   (G G Am Am Bm Bm C)
So important to you

E|-------------------------------|
B|--------0---0---1---1---3---3--|
G|--------0---0---2---2---4---4--|
D|-------------------------------|
A|-------------------------------|
E|-------------------------------|

C
She'll never hurt me
Cm
She won't desert me
A                       D7
She's an angel sent to me

                    Am
She's got the devil...

                                 Am
She's got the devil in her heart
D7                             G
No she's an angel sent to me
                                  Am
She's got the devil in her heart
D7                          G   Am
No she's an angel sent to me

   G6/9
E|----------------10-------------|-------------------------------|
B|----------------10-------------|-------------------------------|
G|-----------------9-------------|-------------------------------|
D|-----------------9-------------|-------------------------------|
A|----------------10-------------|-------------------------------|
E|-------------------------------|-------------------------------|

Clipes

Cifra Club Pro

Aproveite o Cifra Club com benefícios exclusivos e sem anúncios
7 dias grátis
Cifra Club Pro
Aproveite o Cifra Club com benefícios exclusivos e sem anúncios
7 dias grátis