busca

Dig A Pony

The Beatles

Tom: D
(intro 2x) G D A

E|-------------------------------------------------
B|-------------------------------------------------
G|------------------------------4--7--4------------
D|------------2--5--2-----4--7---------------------
A|------2--5-----------3/5-------------------------
E|--1/3--------------------------------------------

E|-------------------------------------------------
B|-------------------------------------------------
G|-----------------------------2-------------------
D|--5--5--5---------2--h3--h4-----4--2---------2---
A|--0--0--0--3--h4----------------------3--h4------
E|-------------------------------------------------

-|--0--2--4--5--7--8--9-------
-|----------------------------
-|-1--2--4--6--7--8--9--------
-|----------------------------
-|----------------------------
-|----------------------------

A                             F#m
I... I hi hi, I hi hi... dig a pony
              Bm            G7
Well you can celebrate any thing you want...  yes
         Bm            G7            E7
You can celebrate any thing you want    ohhh...

A                              F#m
I... I hi hi, I hi hi... do a roadhog
              Bm           G7
Well you can penetrate any place you go... yes
         Bm           G7
you can penetrate any place you go
E7
   I told you so

(riff 1)
         A
G|--------------------2--------------
D|--------------2h3h4---4-2------2---
A|--0-0-0--3-4---------------3h4-----
E|-----------------------------------

G     D       (riff 1)
All I want is you
G                     D                      A
Everything has got to be just like you want it to... because...

A                              F#m
I... I hi hi, I hi hi... pick a moondog
             Bm             G7
Well you can radiate every thing you are   yes...
            Bm            G7             E7
Yes you can radiate every thing you are      ohhh now...

A                               F#m
I... I hi hi, I hi hi... roll a Stone
            Bm           G7
Well you can imitate everyone you know  yes...
        Bm           G7
you can imitate everyone you know
E7
    I told you so

G     D      (riff 1)
All I want is you
G                     D                      A
Everything has got to be just like you want it to... because...

(solo)
         A                                                              F#m
-|----------------------------------------------------14---------------
-|-----------------10--12--p10------12b(14)--12b(14)------b(14)12------
-|--9--11--p9-------------------11---------------------------------11--
-|-------------11------------------------------------------------------
-|---------------------------------------------------------------------
-|---------------------------------------------------------------------

                  Bm              G
-|---------------------------------------------------------------------
-|--10--12--12b(15)--(15)--b(15)12-------------------------------------
-|----------------------------------10--12b(14)12--10------------------
-|---------------------------------------------------------------------
-|---------------------------------------------------------------------
-|---------------------------------------------------------------------

          Bm              G             E7
-|-------------------------------------0------14------16--14--12-------
-|--12b(15)--(15)--b(15)12---------------------------------------------
-|--------------------------12--12/13-----14------16------14--13-------
-|---------------------------------------------------------------------
-|---------------------------------------------------------------------
-|---------------------------------------------------------------------

A                                 F#m
I... I hi hi, I hi hi... fell the wind blow
             Bm            G7
Well you can indicate everything you see   yes...
        Bm          G7            E7
You can indicate anything you see    ohh now...

A                                F#m
I... I hi hi, I hi hi...  load a lorry
             Bm            G7
Well you can syndicate any boat you row   yeah...
         Bm           G7
You can syndicate any boat you row
E7
     I told you so

G     D      (riff 1)
All I want is you
G                     D                      A
Everything has got to be just like you want it to... because...

Clipes

Cifra Club Pro

Aproveite o Cifra Club com benefícios exclusivos e sem anúncios
7 dias grátis
Cifra Club Pro
Aproveite o Cifra Club com benefícios exclusivos e sem anúncios
7 dias grátis