busca

Dizzy Miss Lizzy

The Beatles

INTRO %
                                                         oo
|--------------------------|--------------------------|--------------------------|
|*-------------------------|--------------------------|--------------------------|
|*-------------7--7--9--7--|--------------7--7--9--7--|--------------7--7--9--7--|
|--5--5--8--9--------------|--5--5--8--9--------------|--5--5--8--9--------------|

                        ah   
|--------------------------|--------------------------|--------------------------|
|--------------------------|--------------7--7--9--7--|--------------7--7--9--7--|
|--------------7--7--9--7--|--5--5--8--9--------------|--5--5--8--9--------------|
|--5--5--8--9--------------|--------------------------|--------------------------|

   ah                                              uh  
|--------------------------|--------------------------|-----------------------------|
|--------------------------|--------------------------|----------------9--9--11--9--|
|--------------7--7--9--7--|--------------7--7--9--7--|--7--7--1O--11---------------|
|--5--5--8--9--------------|--5--5--8--9--------------|-----------------------------|

                                                         you make me...
                                                         you make me...
                                                             run and...
|--------------------------|--------------------------|-------------------------------------|
|--------------7--7--9--7--|--------------------------|-------------------------------------|
|--5--5--8--9--------------|--------------7--7--9--7--|--7--7--7--7--(--7--7--5--7--4--7--)-|
|--------------------------|--5--5--8--9--------------|-------------------------------------|

A
   lizzy                      the way you...             
   lizzy                        when you call...
                              I want you...
|--------------------------|--------------------------|--------------------------|
|--------------------------|--------------------------|--------------------------|
|--------------7--7--9--7--|--------------7--7--9--7--|--------------7--7--9--7--|
|--5--5--8--9--------------|--5--5--8--9--------------|--5--5--8--9--------------|

   you make me...             lizzy                               when we...
            ooo...                                       say you're...
       run and tell...                                            baby...
|--------------------------|--------------------------|--------------------------|
|--------------------------|--------------7--7--9--7--|--------------7--7--9--7--|
|--------------7--7--9--7--|--5--5--8--9--------------|--5--5--8--9--------------|
|--5--5--8--9--------------|--------------------------|--------------------------|

                                      come on...
                              come on... 
                              you make me...
|--------------------------|--------------------------|-----------------------------|
|--------------------------|--------------------------|----------------9--9--11--9--|
|--------------7--7--9--7--|--------------7--7--9--7--|--7--7--1O--11---------------|
|--5--5--8--9--------------|--5--5--8--9--------------|-----------------------------|

                                                       1,3__________________________________
   love me...                                               come on
   want to be...             
         I want...                                          come on                           
|--------------------------|--------------------------|-------------------------------------|
|--------------7--7--9--7--|--------------------------|-------------------------------------|
|--5--5--8--9--------------|--------------7--7--9--7--|--7--7--7--7--(--7--7--7--5--7--4--)-|
|--------------------------|--5--5--8--9--------------|-------------------------------------|

B
      put your...             mine                       you make me...
      put your...             mine                       you meke me...
|--------------------------|--------------------------|--------------------------|
|--------------------------|--------------------------|--------------------------|
|--------------7--7--9--7--|--------------7--7--9--7--|--------------7--7--9--7--|
|--5--5--8--9--------------|--5--5--8--9--------------|--5--5--8--9--------------|

   lizzy                      oh girl...                 fine
   lizzy                      girl you...
|--------------------------|--------------------------|--------------------------|
|--------------7--7--9--7--|--------------7--7--9--7--|--------------------------|
|--5--5--8--9--------------|--5--5--8--9--------------|--------------7--7--9--7--|
|--------------------------|--------------------------|--5--5--8--9--------------|

          just a...                                         girl I said...
   you're just...             rolling                       ooo  I said...
|--------------------------|-----------------------------|--------------------------|
|--------------------------|----------------9--9--11--9--|--------------7--7--9--7--|
|--------------7--7--9--7--|--7--7--1O--11---------------|--5--5--8--9--------------|
|--5--5--8--9--------------|-----------------------------|--------------------------|

                                                      2________________________
|--------------------------|------------------------|--------------------------|
|--------------------------|-----------------------*|--------------------------|
|--------------7--7--9--7--|--7--7--7--7--7--7--7--*|--7--7--7--7--7--7--7--7--|
|--5--5--8--9--------------|------------------------|--------------------------|

CODA
|--------------------------|-----------------|
|--------------------------|-----------------|
|--------------7--7--9--7--|-----------------|
|--5--5--8--9--------------|--5--------------|

www.paulislivefaclube.hpg.com.br

_______________________________________________________
Contribuição: valdir felix junior(paulislivefaclube@ibest.com.br)

Clipes

Cifra Club Pro

Aproveite o Cifra Club com benefícios exclusivos e sem anúncios
7 dias grátis
Cifra Club Pro
Aproveite o Cifra Club com benefícios exclusivos e sem anúncios
7 dias grátis