busca

Don't Bother Me

The Beatles

Tom: G
Intro: : D Em

E|--------------0----0----0------------------------|
B|--------------0----0----0------------------------|
G|--------------0----0----0------------------------|
D|--0--4--2--0--2----2----2------------------------| Riff 1
A|-------------------------------------------------|
E|----------------------------0--------------------|

                   B               A              G   E
Since she's been gone, I want no one, to talk to me
              B                    A         G        E
It's not the same, but I'm to blame, it's plain to see
       Em              A                 Em
So go away, leave me alone, don't bother me

            B                    A              G   E
I can't believe, that she would leave me, on my own
               B                  A     G         E
It's just not right, when every night, I'm all alone
             Em                  A               Em
I've got no time, for you right now, don't bother me

            D            Em
I know I'll never be the same
            D            Em
If I don't get her back again
          Bm                 Am
Because I know she'll always be
     C            Em
The only girl for me

                 B                       A                G   E
But till she's here, please don't come near, just stay away
             B                    A       G        E
I'll let you know, if she's come home, until that day
             Em               A                Em
Don't come around, leave me alone, don't bother me

Solo:

E|------------------------------------------------|
B|---------------------------8-9b11r9-------------|
G|--------------------7-7h9-----------9-9-9p7-----|
D|-----5h7/9-9p7h9---------------------------9----|
A|5h7---------------------------------------------|
E|------------------------------------------------|

E|--------------------------------------------------|
B|--------------------------------------------------|
G|------------------7-7h9-9-7-----------------------|
D|----5-5h7/9-9p7h9--------9-7h9-9-9p7\5-5----------|
A|5h7---------------------------------------------7-|
E|--------------------------------------------------|

             Em                  A                Em
I've got no time, for you right now, don't bother me

I know I'll never be the same
If I don't get her back again
Because I know she'll always be
The only girl for me

But till she's here, please don't come near, just stay away
I'll let you know, if she's come home, until that day
             Em               A7                Em  A
Don't come around, leave me alone, don't bother me

Clipes

Cifra Club Pro

Aproveite o Cifra Club com benefícios exclusivos e sem anúncios
7 dias grátis
Cifra Club Pro
Aproveite o Cifra Club com benefícios exclusivos e sem anúncios
7 dias grátis