busca

Eight Days A Week

The Beatles

Tom: A
Intro: D9  E/D  G6/D

   D9              E/D
E|--0--0--0-----0---0--0--0-----0-----------|
B|-10-10-10h12-10--12-12-12h14-12-----------|
G|-11-11-11----11--13-13-13----13-----------|
D|--0--0--0-----0---0-----0-----0-----------|
A|------------------------------------------|
E|------------------------------------------|

   G6/D             D9
E|--0--0--0-----0---0--0--0-----0-----------|
B|-15-15-15h17-15--10-10-10h12-10-----------|
G|-16-16-16----16--11-11-11----11-----------|
D|--0--0--0-----0---0-----0-----0-----------|
A|------------------------------------------|
E|------------------------------------------|

D                E7
Oh, I need your love babe
 G                    D
Guess you know it's true
                  E7
Hope you need my love babe
 G                D
Just like I need you

 Bm       G
Hold me, love me
 Bm       E
Hold me, love me

D                        E7
I ain't got nothin' but love babe
G               D
  Eight days a week
               E7
Love you everyday girl
G             D
Always on my mind

D                E7
One thing I can say girl
   G                D
I love you all the time

 Bm       G
Hold me, love me
 Bm       E
Hold me, love me

D                        E7
I ain't got nothin' but love girl
G               D
  Eight days a week

A
Eight days a week
   Bm
I love you

 E7
Eight days a week
    G              A
Is not enough to show I can

Primeira Parte:

D                E7
Oh, I need your love babe
   G                    D
I guess you know it's true
                  E7
Hope you need my love babe
 G                D
Just like I need you

 Bm       G
Hold me, love me
 Bm       E
Hold me, love me

D                        E7
I ain't got nothin' but love babe
G               D
  Eight days a week

A
Eight days a week
   Bm
I love you

 E7
Eight days a week
    G              A
Is not enough to show I can

 D             E7
Love you everyday girl
G             D
Always on my mind

D                E7
One thing I can say girl
   G                D
I love you all the time

 Bm       G
Hold me, love me
 Bm       E
Hold me, love me

D                        E7
I ain't got nothin' but love babe
G               D
  Eight days a week
G             D
Eight days a week
G             D
Eight days a week

Intro: D9  E/D  G6/D

Clipes

Cifra Club Pro

Aproveite o Cifra Club com benefícios exclusivos e sem anúncios
7 dias grátis
Cifra Club Pro
Aproveite o Cifra Club com benefícios exclusivos e sem anúncios
7 dias grátis