busca

Fixing A Hole

The Beatles

Tom: F
Intro: F  C5+  Fm7

Bb7           F            C5+                Fm7        Bb7
          I'm fixing a hole    where the rain   gets in     and
Fm7                  Bb7                       Fm       Bb7   (Riff 1) Fm7   Bb7
stops my mind from wandering   where it will    go______
Riff 1:
E|--8-------------------|
B|--9--9----------------|
G|-----10--10--8--7~----|
D|---------10--8--------|
A|----------------8~----|
E|----------------------|

       F             C5+          Fm7          Bb7
   I'm filling the cracks that ran through the door and
Fm7                Bb7               Fm       Bb7  (Riff 1) Fm7  Bb7
kept my mind from wandering where it will go_____

And it

F/C                 C            F/C         C
really doesn't matter if I'm wrong I'm right  where I belong
F/C         C            F
 I'm right   where I belong
          See the people...             ...in my door
E|-----------------------------------------------------------------|
B|-----------------------------------------------------------------|
G|------------0-----------0-----------0---------------0-3-5-5b(7)--|
D|-3-2-0----2-------0---2-------0---2-------0---0-2-0--------------|
A|--------3-------2---3-------2---3-------2---3--------------------|
E|--------------3-----------3-----------3--------------------------|

C                   G             C            G
See the people standing there who disagree and never win and
C               G               C
wonder why they don't get in my door

    F                C5+        Fm7      Bb7    Fm7             Bb7
I'm painting the room   in a colorful way   and when my mind is wandering
           Fm     Bb7   (Riff 1) Fm7    Bb7
There I will go___         Ooh ooh ooh ah

(Solo)

And it

F/C                 C            F/C         C
really doesn't matter if I'm wrong I'm right  where I belong
F/C         C            F
 I'm right   where I belong
         Silly people...              ...past my door
E|-----------------------------------------------------------------|
B|-----------------------------------------------------------------|
G|------------0-----------0-----------0---------------0-3-5-5b(7)--|
D|-3-2-0----2-------0---2-------0---2-------0---0-2-0--------------|
A|--------3-------2---3-------2---3-------2---3--------------------|
E|--------------3-----------3-----------3--------------------------|

C            G              C            G
Silly people run around who worry me and never ask me
C                   G       C
why they don't get past my door
    F          C5+         Fm7       Bb7         Fm7                Bb7
I'm taking the time for a number of things that weren't important yesterday
       Fm      Bb7  (Riff 1) Fm7  Bb7
and I still go___   Ooh Ooh Ooh Ah

    Fm7                      Bb7
I'm fixing a hole where the rain gets in
      Fm7               Bb7
And stops my mind from wandering
         Fm7     Bb7  Fm7  Bb7
Where it will go___

Clipes