For You Blue

The Beatles

A7
12
X02020
B7
1234
X21202
D7
123
XX0212
E7
1234
022130
G7
34
353433
Tom: G
Intro: A7  D7  B7  E7

#1t1#                     D7                    G7
#1t2#|---------------------------------------------------------|
|-----------------------------------------------1--1-1--1-|
|-----------------------------------------------2--2-2--2-|
|------2p0-----------2--2-2--2-2--2----------0--0--0-0--0-|
|--------------0--2--0--0-0--0-0--0-----------------------|
|---0-------3------------------------0--1--2--------------|#/1t2##/1t1#

#2t1#               E7                A7
#2t2#|----------------------------------0-----------0-----------0----------0-------|
|------------0--0-0--0-0--0--------0-----3-----3----3------0-----3----3-------|
|------------2--2-2--2-2--2----0h1---------------------0h1--------------------|
|---------1--1--1-1--1-1--1-----------0-----0-----0-----------------0---------|
|---0-1-2----2--2-2--2-2--2-----------2-----2-----2-----------2-----2----2----|
|-------------------------------------0-----0-----0-----------0-----0----0----|#/2t2##/2t1#

A7                           D7         A7
Because you're sweet and lovely girl I love you,
  D7                                            A7
Because you're sweet and lovely girl it's true,
   E7                  D7
I love you more than ever girl I do.
   A7                 D7          A7
I want you in the morning girl I love you,
   D7                                 A7
I want you at the moment I feel blue,
     E7             D7                 A7
I'm living ev'ry moment girl for you

Solo Guitarra Slide: E7 D7 A7 E7 D7 A7 E7  D7 (E7)

A7                      D7     A7
I loved you from the moment I saw you,
     D7                                    A7
You looked at me that's all you had to do,
    E7                    D7
I feel it now I hope you feel it too.
A7                           D7         A7
Because you're sweet and lovely girl I love you,
  D7                                            A7
Because you're sweet and lovely girl it's true,
   E7                  D7
I love you more than ever girl I do.
   A7          D7    G7
I'm having the blues

Guitarra Slide:

#3t1#afinação:
#3t2#         E|--D
         B|--C
         G|--F#
         D|--D
         A|--D
         E|--D#/3t2##/3t1#

Verse:

#4t1#  D7               G7             D7
#4t2#|-/12----12---12---/5----5----5---/12--12--12----12----/12---12---12-|
|-/12----12---12---/5----5----5---/12--12--12----12----/12---12---12-|
|-/12----12---12---/5----5----5---/12--12--12----12----/12---12---12-|
|-/12----12---12---/5----5----5---/12--12--12----12----/12---12---12-|
|--------------------------------------------------------------------|
|--------------------------------------------------------------------|#/4t2##/4t1#

#5t1#    G7                              D7
#5t2#|-/5--5---5---5----/5--5---5---5--/12--12--12----12----/12---12--12-|
|-/5--5---5---5----/5--5---5---5--/12--12--12----12----/12---12--12-|
|-/5--5---5---5----/5--5---5---5--/12--12--12----12----/12---12--12-|
|-/5--5---5---5----/5--5---5---5--/12--12--12----12----/12---12--12-|
|-------------------------------------------------------------------|
|-------------------------------------------------------------------|#/5t2##/5t1#

#6t1#    A7                G7            D7                      A7
#6t2#|-/7---7---7---7---/5--5---5--5---0---0------------------/7--7--7-|
|-/7---7---7---7---/5--5---5--5---0---0------------------/7--7--7-|
|-/7---7---7---7---/5--5---5--5---0---0------------------/7--7--7-|
|-/7---7---7---7---/5--5---5--5---0---0------------------/7--7--7-|
|-----------------------------------------------------0-----------|
|----------------------------------------0---4--5--6--------------|#/6t2##/6t1#

Because you're sweet and lovely girl I love you
Because you're sweet and lovely girl it's true
I love you more than ever girl I do

I want you in the morning girl  I love you
I want you at the moment I feel blue
I'm living every moment girl for you

SOLO:

#7t1#    D7                G7            D7
#7t2#|-----12-------------5-------------12------------------12-----------|
|--------12------------5---------------12--------------12--12-------|
|-----------12------------5---/12----------12\----------------12----|
|-/12------------/5-----------/12--------------------------------12-|
|-----------------------------/12--------------0--------------12----|
|-------------------------------------------------/12---------------|#/7t2##/7t1#

#8t1#    G7                           D7
#8t2#|-----5------------5------------12----------------------------------|
|-/5-----5-----------5------------------12--------------------------|
|-/5--------5----------5------------12-------12--12--12--12--12--12-|
|-/5-----------/5----------/12--------------------------------------|
|-/5----------------------------------------------------------------|
|-------------------------------------------------------------------|#/8t2##/8t1#

#9t1#    A7                  G7          D7                 A7
#9t2#|--------7---------------5--------------------------/7--7--7--7-|
|-/7--7-----7--------/5----5------------------------/7--7--7--7-|
|-/7--7--------7-----/5-------5---0-----------------/7--7--7--7-|
|-/7--7--------------/5-----------------------------/7--7--7--7-|
|-----------------7------------------------------0--------------|
|------------------------------------0--4--5--6-----------------|#/9t2##/9t1#

#10t1#     D7              G7
#10t2#|-/12---------------------------|
|-/12---12--12----/17---17---17-|
|-/12----12--12---/17---17---17-|
|-/12---12--12----/17---17---17-|
|-------------------------------|
|-------------------------------|#/10t2##/10t1#

(spoken)

Walk
Walk cat walk
go Johnny go
same old tale of blues
Elmore James got nothin' on this baby


VERSE:

I loved you from the moment I saw you
You looked at me and that's all you had to do
I feel it now I hope you feel it too

Because you're sweet and lovely girl I love you
Because you're sweet and lovely girl it's true
I love you more than ever girl I do

Ending:

#11t1##11t2#|------------------0/12-|
|------------------0/12-|
|------------------0/12-|
|------------------0/12-|
|-------------0---------|
|-0--4--5--6------------|#/11t2##/11t1#

I'm having the blues
Composição: Colaboração e revisão: Pedro Arantesjoao brito