busca

From Us To You

The Beatles

(INTRO)

G|---------------------------------|---------------------------------|
D|-----------------5---------------|-7-----------7-----------7-------|
A|-3-----------3-----------3-------|-----------------7---------------|
E|---------------------------------|---------------------------------|

G|---------------------------------|---------------------------------|
D|-----------------5---------------|-7-----------7-----------7-------|
A|-3-----------3-----------3-------|-----------------7---------------|
E|---------------------------------|---------------------------------|

(VERSE)

G|---------------------------------|---------------------------------|
D|-----------------5---------------|-7-----------7-----------7-------|
A|-3-----------3-----------3-------|-----------------7---------------|
E|---------------------------------|---------------------------------|

G|---------------------------------|---------------------------------|
D|-----------------5---------------|-5-----------5-----------5-------|
A|-3-----------3-----------3-------|-----------------5---------------|
E|---------------------------------|---------------------------------|

G|---------------------------------|---------------------------------|
D|-3-----------3-----------3-------|-7-----------7-----------7-------|
A|-----------------3---------------|-----------------7---------------|
E|---------------------------------|---------------------------------|

G|---------------------------------|---------------------------------|
D|-----------------5---------------|-----------------5---------------|
A|-3-----------3-------------------|-3-----------3-----------3-------|
E|---------------------------------|---------------------------------|

(INTERLUDE)

G|---------------------------------|---------------------------------|
D|-5-----------5-----------5-------|-----------------5---------------|
A|-----------------5---------------|-3-----------3-----------3-------|
E|---------------------------------|---------------------------------|

G|---------------------------------|---------------------------------|
D|-3-----------3-------------------|-3-----------3-----------3-------|
A|-----------------3-----------3---|-----------------3---------------|
E|---------------------------------|---------------------------------|

G|---------------------------------|---------------------------------|
D|-----------------7---------------|-----------------7---------------|
A|-5-----------5---------------4---|-5-----------5-----------5-------|
E|---------------------------------|---------------------------------|

G|---------------------------------|---------------------------------|
D|-5---5---5---5---5---5---5---5---|-5---5---5---5---5---5---5-------|
A|---------------------------------|---------------------------------|
E|---------------------------------|---------------------------------|

(VERSE)

G|---------------------------------|---------------------------------|
D|-----------------5---------------|-7-----------7-----------7-------|
A|-3-----------3-----------3-------|-----------------7---------------|
E|---------------------------------|---------------------------------|

G|---------------------------------|---------------------------------|
D|-----------------5---------------|-5-----------5-----------5-------|
A|-3-----------3-----------3-------|-----------------5---------------|
E|---------------------------------|---------------------------------|

G|---------------------------------|---------------------------------|
D|-3-----------3-----------3-------|-7-----------7-----------7-------|
A|-----------------3---------------|-----------------7---------------|
E|---------------------------------|---------------------------------|

G|---------------------------------|---------------------------------|
D|-----------------5---------------|-------------5-------------------|
A|-3-----------3-------------------|-3-----------------------3-------|
E|---------------------------------|---------------------------------|

G|---------------------------------|---------------------------------|
D|-7-----------------------7-------|-6-----------------------6-------|
A|-------------7-------------------|-------------7-------------------|
E|---------------------------------|---------------------------------|

G|---------------------------------|---------------------------------|
D|-----------------5---------------|-7-------------------------------|
A|-3-----------3-----------3-------|---------------------------------|
E|---------------------------------|---------------------------------|

Clipes