busca

Good Day Sunshine

The Beatles

INTRO
|-----------------|-----------------|-----------------|-----------------|
|-----------------|-----------------|-----------------|-----------------|
|-----------------|-----------------|-----------------|-----------------|
|--O---O---O---O--|--O---O---O---O--|--O---O---O---O--|--O---O---O---O--|

A %
   good day      sunshine              goood day     sunshine              good day
|-------------|---------------------|-------------|---------------------|-------------|
|*------------|---------------------|-------------|---------------------|-------------|
|*------------|---------------------|-------------|---------------------|-------------|
|--7---7---7--|--2---2---2---2---2--|--7---7---7--|--2---2---2---2---2--|--O---O---O--|

   sunshine       I need to
                  we take a
                     then we
|----------------------------|
|----------------------------|
|----------------------------|
|--O---O---O---O-------------|

B
1,3_______________
   laugh...          sun is out           I've got...

   lie...            shady tree           I love...
|-----------------|--------------------|-----------------|
|-----------------|--------------------|-----------------|
|-----------------|--------------------|-----------------|
|--5---5---2---2--|--7---7---7---7--7--|--O---O---O---O--|

     laugh...                in a..            way       I'm in...         sunny...
       me...                 she...    looking fine      I'm so...
|-----------------|-----------------|-----------------|-----------------|-----------------|
|-----------------|-----------------|-----------------|-----------------|----------------*|
|-----------------|-----------------|-----------------|-----------------|----------------*|
|--5---5---5---5--|--5---5---2---2--|--7---7---7---7--|--O---O---O---O--|--5---5---5---5--|

2_________________
   walk              shining...        burns...          the ground
|-----------------|-----------------|-----------------|-----------------|
|-----------------|-----------------|-----------------|-----------------|
|-----------------|-----------------|-----------------|-----------------|
|--5---5---2---2--|--7---7---7---7--|--O---O---O---O--|--5---5---5---5--|

C
|--------------------|--------------------|--------------------|--------------------|
|--------------------|--------------------|--------------------|--------------------|
|--5---5-------------|--------------------|--------------------|--5---5---5---5--5--|
|----------7---7--7--|--O---O---O---O--O--|--5---5---5---5--5--|--------------------|

CODA
     she is mine
|--------------------|
|--------------------|
|--------------------|
|--5---5---5---5--5--|

D
   good day      sunshine              good day      sunshine              good day
|-------------|---------------------|-------------|---------------------|-------------|
|-------------|---------------------|-------------|---------------------|-------------|
|-------------|---------------------|-------------|---------------------|-------------|
|--7---7---7--|--2---2---2---2---2--|--7---7---7--|--2---2---2---2---2--|--O---O---O--|

   sunshine          good day      sunshine              good day      sunshine
|-----------------|-------------|---------------------|-------------|---------------------|
|-----------------|-------------|---------------------|-------------|---------------------|
|-----------------|-------------|---------------------|-------------|---------------------|
|--O---O---O---O--|--7---7---7--|--2---2---2---2---2--|--7---7---7--|--2---2---2---2---2--|

   good day      sunshine
|-------------|-----------------|
|-------------|-----------------|
|-------------|-----------------|
|--O---O---O--|--O---O---O---O--|

E
   good day     sunshine     good day     sunshine
|------------|------------|------------|-----------|
|------------|------------|------------|-----------|
|--8---------|------------|------------|-----------|
|------------|------------|------------|-----------|

www.paulislivefaclube.hpg.com.br


_______________________________________________________
Contribuição: valdir felix junior(paulislive@ig.com.br)

Clipes

Cifra Club Pro

Aproveite o Cifra Club com benefícios exclusivos e sem anúncios
Cifra Club Pro
Aproveite o Cifra Club com benefícios exclusivos e sem anúncios