busca

Good Day Sunshine

The Beatles

Bassist : Paul McCartney
Song made in : 1966

By Mystic_guy (Mystic_M*)

Intro:
G|-------------------------------------|
D|-------------------------------------|
A|-7-7-7-7-7-7-7-7-7-7-7-7-7-7-7-7-----|
E|-------------------------------------|

Chorus:
G|-------------------------------------------------------|
D|-------------------------------------------------------|
A|--2--2--2---------------2---2--2--2-------------2------|
E|-----------2--2--2--2-4---4----------2--2--2--4---4----|

G|-----------------------|
D|-----------------------|
A|-----------------------|
E|--0--0--0--0--0--0--0--|

Verse :

G|-------------------------------------------------------------|
D|--------------------------------------------4--6--7--7--7--7-|
A|----------------------------4-6-7--7--7--7-------------------|
E|--5--5-4-3-2--2--7--7--7--7----------------------------------|

G|-------------------------------------------------------------|
D|--------------------------------------------4--6--7--7--7--7-|
A|----------------------------4-6-7--7--7--7-------------------|
E|--5--5-4-3-2--2--7--7--7--7----------------------------------|

Chorus again :

G|-------------------------------------------------------|
D|-------------------------------------------------------|
A|--2--2--2---------------2---2--2--2-------------2------|
E|-----------2--2--2--2-4---4----------2--2--2--4---4----|

G|-----------------------|
D|-----------------------|
A|-----------------------|
E|--0--0--0--0--0--0--0--|

Verse (Only One Time) :

G|-------------------------------------------------------------|
D|--------------------------------------------4--6--7--7--7--7-|
A|----------------------------4-6-7--7--7--7-------------------|
E|--5--5-4-3-2--2--7--7--7--7----------------------------------|

Piano Solo :

G|-------------------------------------------4-6-7--7--7--7----|
D|----------------------------4-6-7--7--7--7-------------------|
A|--5--5-4-3-2--2--7--7--7--7----------------------------------|
E|-------------------------------------------------------------|

Chorus again (how many time did they sang the chorus?!?) :

G|-------------------------------------------------------|
D|-------------------------------------------------------|
A|--2--2--2---------------2---2--2--2-------------2------|
E|-----------2--2--2--2-4---4----------2--2--2--4---4----|

G|-----------------------|
D|-----------------------|
A|-----------------------|
E|--0--0--0--0--0--0--0--|

Verse :

G|-------------------------------------------------------------|
D|--------------------------------------------4--6--7--7--7--7-|
A|----------------------------4-6-7--7--7--7-------------------|
E|--5--5-4-3-2--2--7--7--7--7----------------------------------|

G|-------------------------------------------------------------|
D|--------------------------------------------4--6--7--7--7--7-|
A|----------------------------4-6-7--7--7--7-------------------|
E|--5--5-4-3-2--2--7--7--7--7----------------------------------|

Chorus (...damn....again...but with a slight change!) :

G|-------------------------------------------------------|
D|-------------------------------------------------------|
A|--2--2--2---------------2---2--2--2-------------2------|
E|-----------2--2--2--2-4---4----------2--2--2--4---4----|

G|-----------------------|
D|-----------------------|
A|-----------------------|
E|--0--0--0--0--0--0--0--|

G|-------------------------------------------------------|
D|-------------------------------------------------------|
A|--2--2--2---------------2---2--2--2-------------2------|
E|-----------2--2--2--2-4---4----------2--2--2--4---4----|

G|--------------------------|
D|--------------------------|
A|-----------------------8--|
E|--0--0--0--0--0--0--0-----|

Well guess what! This is my third tab , my two others are : Because
and Run Devil Run (by Paul McCartney) , if you liked this one,
take a look at the others at *. I'm currently
working on a bass tab of ''She's Leaving Home'' (...it's true!
Paul played on bass on the live version...I saw it in Palais Omnisport
de Bercy...and it was marvelous). Anyways it's an easy tab so...listen
to the song and play it!

                                       Mystic_guy

Clipes

Cifra Club Pro

Aproveite o Cifra Club com benefícios exclusivos e sem anúncios
Cifra Club Pro
Aproveite o Cifra Club com benefícios exclusivos e sem anúncios