busca

Hey Bulldog

The Beatles

Tom: B
(intro) B5 F#m

(riff) F# F# A F# B C D

      B7                       F#m
E|----------------------------------------------------|
B|----------------------------------------------------|
G|----------------------------------------------------| (3x)
D|--------0-----2-----3--4--------0-----4-----3--2----|
A|--2--2-----2-----2--------2--2-----2-----2----------|
E|----------------------------------------------------|

B5        F#m
Sheep dog standing in the rain
B5        F#m
Bull frog doing it again
A            F#m
Some kind of happiness is
E                      E7
measured out in miles
A             F#m
What make you think you're
B5
something special when you smile

B5        F#m
Childlike no one understand
B5         F#m
Jack knife in your sweaty hands
A            F#m
Some kind of innocence is
E                      E7
measured out in years
A              F#m
You don't know what it's like
B5
to listen to you fears

(refrão)
     Bm   Bm(#5)  Bm6    Bm7      Em   Em(#5) Em6   Em7
E|----------------------------|---0-----0-----0-----0---|
B|----------------------------|---0-----1-----2-----3---|
G|---7------7------7------7---|---0-----0-----0-----0---|
D|---9------9------9------7---|---2-----2-----2-----2---|
A|---9------10-----11-----9---|---2-----2-----2-----2---|
E|---7------7------7------7---|---0-----0-----0-----0---|

Bm       Bm(#5)   Bm6
 You can talk to me
Bm7             Em  Em(#5)
 You can talk to me
Em6                Em7
You can talk to me
           G             F#       B5 (repete riff)
If you're lonely  you can talk to me

(solo)
E|---------------------------------------------------------------------------------------------|
B|---------------------------------------------------------------------------------------------|
G|-----7-----9----10--11--------7----11----10--9-----7---9----10--11---7----11---10---9--------|
D|-9-9----9----9-----------9-9-----9-----9---------9---9----9----9--------9----9----9-----9----|
A|---------------------------------------------------------------------------------------------|
E|---------------------------------------------------------------------------------------------|

E|7-7-7-7-7-7------------------------7-7-7-7-7-7--------------------------------------4-4---|
B|7-7-7-7-7-7-----------4-2-2-4-5----7-7-7-7-7-7---------4-2-2-4-5-5-5-5-5-4-4-2-4----3-3-3-|
G|4-4-4-4-4-4-----------4-2-2-4-6----4-4-4-4-4-4---------4-2-2-4-6-6-6-6-6-4-3-2-4----4-4---|
D|--------------------4--------------------------------4------------------------------------|
A|--------------2/6-------------------------------2/6---------------------------------------|
E|------------------------------------------------------------------------------------------|

E|-12-12-12-12-12-12-----------------------------------------------x-x-x-x-x----|
B|------------------------------4-2-2-4-5-5---4-4-2-4-4-4-4-4------7-7-7-7-7----|
G|------------------------------4-2-2-4-6-6---4-3-2-4-4-4-4-4------8-8-8-8-8----|
D|------------------------------------------------------------------------------|
A|------------------------------------------------------------------------------|
E|------------------------------------------------------------------------------|

B5      F#m
Big man walking in the park
B5     F#m
Wigwam frightened of the dark
A            F#m
Some kind of solitude is
E                     E7
measured out in you
A             F#m          B7
You think you know but you haven't got a clue

Bm       Bm(#5)   Bm6
 You can talk to me
Bm7             Em  Em(#5)
 You can talk to me
Em6                Em7
You can talk to me
           G             F#       B5 (riff)
If you're lonely  you can talk to me

( B5 F#m )
Hey Bulldog
Hey Bulldog...

Clipes