busca

I Dig A Pony

The Beatles

Tom: G
(intro 2x)
       G                 D
-|--------------------------------------
-|--------------------------------------
-|-----------------------------4--7--4--
-|-----------2--5--2-----4--7-----------
-|-----2--5-----------5-----------------
-|--3-----------------------------------

       A
-|-------------------------------------------------
-|-------------------------------------------------
-|-----------------------------2-------------------
-|--5--5--5---------2--h3--h4-----4--2---------2---
-|--0--0--0--3--h4----------------------3--h4------
-|-------------------------------------------------

(verso)
       A      F#m
-|--5--5----5--5----5--5----5----------2--
-|--2--2h3--2--2h3--2--2h3--2----------2--
-|--2--2----2--2----2--2----2----------2--
-|--2--2h4--2--2h4--2--2h4--2----------4--
-|--0--0----0--0----0--0----0----------4--
-|-------------------------------------2--

                              Bm           G
-|------------------------------------------------3--5--5/7--5--
-|--------------------------------------------------------------
-|------------------------------------------------4--5--5/7--5--
-|--2h4--2------------------------------------------------------
-|---------------4-------2--------------------------------------
-|--------------------------------------------------------------

                Bm            G           E7                  A
-|--3--------2-------------3-------------0--2--4--5--7--8--9-------
-|-----------------------------------------------------------------
-|--4--------4-------------4-------------1--2--4--6--7--8--9-------
-|-----------------------------------------------------------------
-|-----------------------------------------------------------------
-|-----------------------------------------------------------------

A        F#m
I do a roadhog
               Bm           G
Well you can penetrate any place you go
               Bm           G
Yes you can penetrate any place you go
          I told you so

       E7
-|--9--7-----4----2--0----
-|------------------------
-|--9--7-----4----2--1----
-|------------------------
-|------------------------
-|------------------------

       G        D        A
-|------------------------------------------------------------------
-|------------------------------------------------------------------
-|------------------------------------------------------------------
-|-----------------------------------------------2------------------
-|-----2--5--------5--5--5--5---------2--h3--h4-----4--2---------2--
-|--3--------2--5-----0--0--0--3--h4----------------------3--h4-----

       G                 D
-|---------------------------------------------------
-|---------------------------------------------------
-|-----------------------------------4---7----4------
-|-------------2---5---2-----4---7---------------5---
-|-----2--5---------------5----------------------0---
-|--3------------------------------------------------

(verso)
I pick a moondog
Well you can radiate every thing you are
Yes you can radiate every thing you are
I wrote a story
Well ou can imitate everyone you know
Yes you can imitate everyone you know
I told you so
All I want is you
Everything has got to be the way you want it to.
Because...

(solo)
       A                                                              F#m
-|----------------------------------------------------14---------------
-|-----------------10--12--p10------12b(14)--12b(14)------b(14)12------
-|--9--11--p9-------------------11---------------------------------11--
-|-------------11------------------------------------------------------
-|---------------------------------------------------------------------
-|---------------------------------------------------------------------

                Bm              G
-|---------------------------------------------------------------------
-|--10--12--12b(15)--(15)--b(15)12-------------------------------------
-|----------------------------------10--12b(14)12--10------------------
-|---------------------------------------------------------------------
-|---------------------------------------------------------------------
-|---------------------------------------------------------------------

        Bm              G             E7
-|-------------------------------------0------14------16--14--12-------
-|--12b(15)--(15)--b(15)12---------------------------------------------
-|--------------------------12--12/13-----14------16------14--13-------
-|---------------------------------------------------------------------
-|---------------------------------------------------------------------
-|---------------------------------------------------------------------

(verso)
I fell the wind blow
Well you can indicate everything you see
Yes you can indicate anything you see
I wrote a lorry (??? you tell me ???)
Well you can syndicate any boat you row
Yes you can syndicate any boat you row
I told you so
All I want is you
Everything has got to be the way you want it to.
Because...

(intro 2x)

Clipes