busca

I Just Dont Understand

The Beatles

Tom: G
(intro)

E |--------------------|--------------------|--------------------|
H|--------------------|--------------------|--------------------|
G |--------------------|--------------------|--------------------|
D |------------------2-|0-------------------|--------------------|
A |-------------2------|------2------0------|--------------------|
E |--------------------|------------------3-|0------------0----3-|

E |--------------------|--------------------|--------------------|
H|--------------------|--------------------|--------------------|
G |--------------------|--------------------|--------------------|
D |------------------2-|0-------------------|------------------5-|
A |-------------2------|------2------0------|-------------7------|
E |--------------------|------------------3-|0-------------------|

E |--------------------|--------------------|--------------------|
H|--------------------|--------------------|--------------------|
G |--------------------|--------------------|--------------------|
D |--------------------|------------------2-|0-------------------|
A|0h2---0h2----0------|-------------2------|------2------0------|
E |------------------3-|0-------------------|------------------3-|

E |--------------------|--------------------|--------------------|
H|--------------------|--------------------|--------------------|
G |--------------------|------------------9-|7-------------------|
D|7/9---9------9\7--5-|-------------9------|------9------7----5-|
A |--------------------|7-------------------|--------------------|
E |--------------------|--------------------|--------------------|

E |--------------------|--------------------|--------------------|
H|--------------------|--------------------|--------------------|
G |--------------------|--------------------|--------------------|
D |--------------------|--------------------|--------------------|
A |--------------------|0h2---0h2----0------|--------------------|
E |0------------0----3-|------------------3-|0-------------------|

E |--------------------|--------------------|--------------------|
H|--------------------|--------------------|--------------------|
G |--------------------|--------------------|--------------------|
D |------------------5-|7/9---9------9\7--5-|--------------------|
A |7------------7------|--------------------|7-------------------|
E |--------------------|--------------------|--------------------|

(verso)
                          Em
E |--------------------|--------------------|--------------------|
H|--------------------|--------------------|--------------------|
G |--------------------|--------------------|--------------------|
D |--------------------|------------------5-|7/9---9------9\7--5-|
A |--------------------|-----------5h7------|--------------------|
E |--------------------|--------------------|--------------------|

E |--------------------|--------------------|--------------------|
H|--------------------|--------------------|--------------------|
G |--------------------|--------------------|--------------------|
D |--------------------|--------------------|------------------5-|
A |7-------------------|--------------------|-----------5h7------|
E |--------------------|--------------------|--------------------|

E |--------------------|--------------------|--------------------|
H|--------------------|--------------------|--------------------|
G |--------------------|--------------------|--------------------|
D|7/9---9------9\7--5-|--------------------|--------------------|
A |--------------------|7-------------------|--------------------|
E |--------------------|--------------------|--------------------|

     Am
E |--------------------|--------------------|--------------------|
H|--------------------|--------------------|--------------------|
G |--------------------|--------------------|--------------------|
D |------------------5-|7/9---9------9\7--5-|7-------------------|
A |-----------5h7------|--------------------|--------------------|
E |--------------------|--------------------|--------------------|

                          Em
E |--------------------|--------------------|--------------------|
H|--------------------|--------------------|--------------------|
G |--------------------|------------------9-|7-------------------|
D |--------------------|-------------9------|------9------7----5-|
A |--------------------|--------------------|--------------------|
E |--------------------|--------------------|--------------------|

E |--------------------|
H|--------------------|
G |--------------------|
D |--------------------|
A |7-------------------|
E |--------------------|

(verso)
                          Em
E |--------------------|--------------------|--------------------|
H|--------------------|--------------------|--------------------|
G |--------------------|--------------------|--------------------|
D |--------------------|------------------5-|7/9---9------9\7--5-|
A |--------------------|-----------5h7------|--------------------|
E |--------------------|--------------------|--------------------|

E |--------------------|--------------------|--------------------|
H|--------------------|--------------------|--------------------|
G |--------------------|--------------------|--------------------|
D |--------------------|--------------------|------------------5-|
A |7-------------------|--------------------|-----------5h7------|
E |--------------------|--------------------|--------------------|

E |--------------------|--------------------|--------------------|
H|--------------------|--------------------|--------------------|
G |--------------------|--------------------|--------------------|
D|7/9---9------9\7--5-|--------------------|--------------------|
A |--------------------|7-------------------|--------------------|
E |--------------------|--------------------|--------------------|

     Am
E |--------------------|--------------------|--------------------|
H|--------------------|--------------------|--------------------|
G |--------------------|--------------------|--------------------|
D |------------------5-|7/9---9------9\7--5-|7-------------------|
A |-----------5h7------|--------------------|--------------------|
E |--------------------|--------------------|--------------------|

                          Em
E |--------------------|--------------------|--------------------|
H|--------------------|--------------------|--------------------|
G |--------------------|------------------9-|7-------------------|
D |--------------------|-------------9------|------9------7----5-|
A |--------------------|--------------------|--------------------|
E |--------------------|--------------------|--------------------|

E |--------------------|
H|--------------------|
G |--------------------|
D |--------------------|
A |7-------------------|
E |--------------------|

(ponte)
                          Am
E |--------------------|--------------------|--------------------|
H|--------------------|--------------------|--------------------|
G |--------------------|--------------------|--------------------|
D |--------------------|--------------------|--------------------|
A |--------------------|--------------------|--------------------|
E |--------------------|--------------------|--------------------|

                                               Em
E |--------------------|--------------------|--------------------|
H|--------------------|--------------------|--------------------|
G |--------------------|--------------------|--------------------|
D |--------------------|--------------------|--------------------|
A |--------------------|--------------------|--------------------|
E |--------------------|--------------------|--------------------|

E |7-----7-------------|--------------------|--------------------|
H|--------------------|--------------------|--------------------|
G |--------------------|--------------------|--------------------|
D |-------------9\7--5-|--------------------|--------------------|
A |--------------------|7-------------------|--------------------|
E |--------------------|--------------------|--------------------|

     Am
E |--------------------|--------------------|--------------------|
H|--------------------|--------------------|--------------------|
G |--------------------|--------------------|--------------------|
D |--------------------|--------------------|--------------------|
A |--------------------|--------------------|--------------------|
E |--------------------|--------------------|--------------------|

                          Em
E |--------------------|--------------------|--------------------|
H|--------------------|--------------------|--------------------|
G |--------------------|------------------9-|7-------------------|
D |--------------------|-------------9------|------9------7----5-|
A |--------------------|--------------------|--------------------|
E |--------------------|--------------------|--------------------|

E |-------------4------|
H|-------------3------|
G |-------------4------|
D |--------------------|
A |7-------------------|
E |--------------------|

(solo)
                          Em
E |4-----4-4-4-4-4-4-4-|4-----4-4-4-4-4-4-4-|4-4-4-4-4-4-4-4-4-4-|
H|3-----3-3-3-3-3-3-3-|3-----3-3-3-3-3-3-3-|3-3-3-3-3-3-3-3-3-3-|
G |4-----4-4-4-4-4-4-4-|4-----4-4-4-4-4-4-4-|4-4-4-4-4-4-4-4-4-4-|
D |--------------------|--------------------|--------------------|
A |--------------------|--------------------|--------------------|
E |--------------------|--------------------|--------------------|

E |--------------------|--------------------|--------------------|
H|--------------------|--------------------|--------------------|
G |4-------------------|--------------------|------------------9-|
D |------------------5-|7/9---9------9\7--5-|-------------9------|
A |-----------5h7------|--------------------|7-------------------|
E |--------------------|--------------------|--------------------|

E |--------------------|--------------------|--------------------|
H|--------------------|--------------------|------------------3-|
G |7-------------------|--------------------|2/4---4------4------|
D |------9------7----5-|------------------5-|--------------------|
A |--------------------|7------------7------|--------------------|
E |--------------------|--------------------|--------------------|

     Am
E |0-0-0-0-0-0-0-0-0-0-|0-------------------|--------------------|
H|1-1-1-1-1-1-1-1-1-1-|1(trem.)------------|--------------------|
G |2-2-2-2-2-2-2-2-2-2-|2-------------------|--------------------|
D |--------------------|--------------------|------------------5-|
A |--------------------|--------------------|-----------5h7------|
E |--------------------|--------------------|--------------------|

                          Em
E |--------------------|--------------------|--------------------|
H|--------------------|--------------------|--------------------|
G |--------------------|------------------9-|7-------------------|
D|7/9---9------9\7--5-|-------------9------|------9------7----5-|
A |--------------------|7-------------------|--------------------|
E |--------------------|--------------------|--------------------|

E |--------------------|
H|--------------------|
G |--------------------|
D |--------------------|
A |7-------------------|
E |--------------------|

 (ponte)
                          Am
E |--------------------|--------------------|--------------------|
H|--------------------|--------------------|--------------------|
G |--------------------|--------------------|--------------------|
D |--------------------|--------------------|--------------------|
A |--------------------|--------------------|--------------------|
E |--------------------|--------------------|--------------------|

                                               Em
E |--------------------|--------------------|--------------------|
H|--------------------|--------------------|--------------------|
G |--------------------|--------------------|--------------------|
D |--------------------|--------------------|--------------------|
A |--------------------|--------------------|--------------------|
E |--------------------|--------------------|--------------------|

E |7-----7-------------|--------------------|--------------------|
H|--------------------|--------------------|--------------------|
G |--------------------|--------------------|--------------------|
D |-------------9\7--5-|--------------------|--------------------|
A |--------------------|7-------------------|--------------------|
E |--------------------|--------------------|--------------------|

     Am
E |--------------------|--------------------|--------------------|
H|--------------------|--------------------|--------------------|
G |--------------------|--------------------|--------------------|
D |--------------------|--------------------|--------------------|
A |--------------------|--------------------|--------------------|
E |--------------------|--------------------|--------------------|

                          Em
E |--------------------|--------------------|--------------------|
H|--------------------|--------------------|--------------------|
G |--------------------|------------------9-|7-------------------|
D |--------------------|-------------9------|------9------7----5-|
A |--------------------|--------------------|--------------------|
E |--------------------|--------------------|--------------------|

E |--------------------|
H|--------------------|
G |--------------------|
D |--------------------|
A |7-------------------|
E |--------------------|

                          Em
E |--------------------|------------------3-|5/7---7------7\5--3-|
H|--------------------|-------------5------|--------------------|
G |--------------------|--------------------|--------------------|
D |--------------------|--------------------|--------------------|
A |--------------------|--------------------|--------------------|
E |--------------------|--------------------|--------------------|

E |--------------------|--------------------|------------------3-|
H|5-------------------|--------------------|-------------5------|
G |--------------------|--------------------|--------------------|
D |--------------------|--------------------|--------------------|
A |--------------------|--------------------|--------------------|
E |--------------------|--------------------|--------------------|

E|5/7---7------7\5--3-|--------------------|--------------------|
H|--------------------|5-------------------|--------------------|
G |--------------------|--------------------|--------------------|
D |--------------------|------------------2-|0-------------------|
A |--------------------|-------------2------|------2------0------|
E |--------------------|--------------------|------------------3-|

     Am
E |--------------------|--------------------|--------------------|
H|--------------------|--------------------|--------------------|
G |--------------------|--------------------|--------------------|
D |--------------------|--------------------|------------------2-|
A |--------------------|--------------------|-------------2------|
E |5------------0----3-|5/7---7------7\5--3-|5-------------------|

                          Em
E |--------------------|--------------------|--------------------|
H|--------------------|--------------------|--------------------|
G |--------------------|------------------9-|7-------------------|
D |0-------------------|-------------9------|------9------7----5-|
A |------2------0------|--------------------|--------------------|
E |------------------3-|0-------------------|--------------------|

E |-------------4------|
H|-------------3------|
G |-------------4------|
D |--------------------|
A |7-------------------|
E |--------------------|

(solo)
                          Em
E |4-----4-4-4-4-4-4-4-|4-----4-4-4-4-4-4-4-|4-4-4-4-4-4-4-4-4-4-|
H|3-----3-3-3-3-3-3-3-|3-----3-3-3-3-3-3-3-|3-3-3-3-3-3-3-3-3-3-|
G |4-----4-4-4-4-4-4-4-|4-----4-4-4-4-4-4-4-|4-4-4-4-4-4-4-4-4-4-|
D |--------------------|--------------------|--------------------|
A |--------------------|--------------------|--------------------|
E |--------------------|--------------------|--------------------|

E |--------------------|--------------------|--------------------|
H|--------------------|--------------------|--------------------|
G |4-------------------|--------------------|------------------9-|
D |------------------5-|7/9---9------9\7--5-|-------------9------|
A |-----------5h7------|--------------------|7-------------------|
E |--------------------|--------------------|--------------------|

E |--------------------|--------------------|--------------------|
H|--------------------|--------------------|------------------3-|
G |7-------------------|--------------------|2/4---4------4------|
D |------9------7----5-|------------------5-|--------------------|
A |--------------------|7------------7------|--------------------|
E |--------------------|--------------------|--------------------|

     Am
E |0-0-0-0-0-0-0-0-0-0-|0-0-0-0-0-0-0-0-0-0-|--------------------|
H|1-1-1-1-1-1-1-1-1-1-|1-1-1-1-1-1-1-1-1-1-|--------------------|
G |2-2-2-2-2-2-2-2-2-2-|2-2-2-2-2-2-2-2-2-2-|--------------------|
D |--------------------|--------------------|------------------5-|
A |--------------------|--------------------|-----------5h7------|
E |--------------------|--------------------|--------------------|

                          Em
E |--------------------|--------------------|--------------------|
H|--------------------|--------------------|--------------------|
G |--------------------|------------------9-|7-------------------|
D|7/9---9------9\7--5-|-------------9------|------9------7----5-|
A |--------------------|7-------------------|--------------------|
E |--------------------|--------------------|--------------------|

E |--------------------|--------------------|2-2-2-2-2-2-2-2-2-2-|
H|--------------------|--------------------|0-0-0-0-0-0-0-0-0-0-|
G |--------------------|--------------------|2-2-2-2-2-2-2-2-2-2-|
D |------------------5-|7/9---9-------------|--------------------|
A |7------------7------|------------10------|--------------------|
E |--------------------|--------------------|--------------------|

                          G
E |2-2-2-2-2-2-2-2-2-2-|3-------------------|--------------------|
H|0-0-0-0-0-0-0-0-0-0-|0-------------------|--------------------|
G |2-2-2-2-2-2-2-2-2-2-|4-----------------9-|7-------------------|
D |--------------------|-------------9------|------9------7----5-|
A |--------------------|--------------------|--------------------|
E |--------------------|--------------------|--------------------|

     Em
E |--------------------|--------------------|--------------------|
H|--------------------|--------------------|--------------------|
G |--------------------|--------------------|--------------------|
D |------------------5-|7/9---9------9\7--5-|--------------------|
A |7------------7------|--------------------|7-------------------|
E |--------------------|--------------------|--------------------|

E |3-3-3-3-3-3-3-3-3-3-|3-3-3-3-3-3-3-3-3-3-|
H|5-5-5-5-5-5-5-5-5-5-|5-5-5-5-5-5-5-5-5-5-|
G |4-4-4-4-4-4-4-4-4-4-|4-4-4-4-4-4-4-4-4-4-|
D |--------------------|--------------------|
A |--------------------|--------------------|
E |--------------------|--------------------|

Clipes