busca

I Wanna Be Your Man

The Beatles

Tom: D
Intro:

E|------------|
B|------------|
G|--2b--------|
D|------0-----|
A|------------|
E|------------|

Riff 1:

E|---14--13--12--11----|
B|---------------------|
G|---11--10--9---8-----|
D|---------------------|
A|---------------------|
E|---------------------|

Riff 2:

E|---12--11--10--9-----|
B|---------------------|
G|---9---8---7---6-----|
D|---------------------|
A|---------------------|
E|---------------------|

Riff 3:

E|---------------------|
B|---------------------|
G|----9/7--------------|
D|----9/7--------------|
A|----7/5--------------|
E|---------------------|

Solo:


    E7
E|---------------------------------|--------------------------------
B|---------------------------------|--------------------------------
G|---------2b(4)--------------2b(4)|------------2b(4)r2--0----------
D|---------------------------------|-------------------------2------
A|---------------------------------|--------------------------------
E|---------------------------------|--------------------------------

E|---------------------------------|--------------------------------
B|---------------------------------|--------------------------------
G|-------------0-----------2-------|-2b(4)------2b(4)r2--0----------
D|-2-------------------------------|-------------------------2------
A|---------------------------------|--------------------------------
E|---------------------------------|--------------------------------

E|---------------------------------|--------------------------------
B|---------9-----------7-----------|-9----------12-----------9------
G|---------9-----------7-----------|-9----------12-----------9------
D|---------9-----------7-----------|-9----------12-----------9------
A|---------------------------------|--------------------------------
E|---------------------------------|--------------------------------

E|---------------------------------|--------------------------------
B|---------9-----------7-----------|-9----------12------------------
G|---------9-----------7-----------|-9----------12------------------
D|---------9-----------7-----------|-9----------12------------------
A|---------------------------------|--------------------------------
E|---------------------------------|--------------------------------

E|---------------------------------|--------------------------------
B|--------12---9-------------------|-7-----------9------------------
G|--------12---9-------------------|-7-----------9------------------
D|--------12---9-------------------|-7-----------9------------------
A|---------------------------------|--------------------------------
E|---------------------------------|--------------------------------

E|---------------------------------|--------------------------------
B|--------12---9-------------------|-7-----------9------------------
G|--------12---9-------------------|-7-----------9------------------
D|--------12---9-------------------|-7-----------9------------------
A|---------------------------------|--------------------------------
E|---------------------------------|--------------------------------

E7
I wanna be your lover baby
I wanna be your man
I wanna be your lover baby
I wanna be your man

E7
Love you like no other baby
like no other can
Love you like no other baby
like no other can


                F#7 B7
I wanna be your man    (Riff 1)
                 E7 C#7
I wanna be your man    (Riff 2)
                F#7 B7
I wanna be your man    (Riff 1)
                 E D/E
I wanna be your man    (Riff 3)


E7
Tell me that you love me baby
Let me understand
Tell me that you love me baby
I wanna be your man

E7
I wanna be your lover baby
I wanna be your man
I wanna be your lover baby
I wanna be your man


                F#7 B7
I wanna be your man    (Riff 1)
                 E7 C#7
I wanna be your man    (Riff 2)
                F#7 B7
I wanna be your man    (Riff 1)
                 E D/E
I wanna be your man    (Riff 3)

Solo: E7

E7
I wanna be your lover baby
I wanna be your man
I wanna be your lover baby
I wanna be your man

E7
Love you like no other baby
like no other can
Love you like no other baby
like no other can


 F#7 B7
I wanna be your man    (Riff 1)
                 E7 C#7
I wanna be your man    (Riff 2)
                F#7 B7
I wanna be your man    (Riff 1)
                 E D/E
I wanna be your man    (Riff 3)

E7
I wanna be your man   oh
I wanna be your man   oh
I wanna be your man   ho  ho

Clipes