busca

If You've Got Trouble

The Beatles

Tom: D
(intro)

E |------- ------- ------- -------|------- ------- ------- -------|
B |-------------------------------|-------------------------------|
G |-------------------------------|-------------------------------|
D |-------------------------------|-------------------------------|
A |-------------------------------|-------------------------------|
E |-------------------------------|-------------------------------|

    E7
E |------- ------- ------- -------|------- ------- ------- -------|
B |-------------------------------|-------------------------------|
G |-------------------------------|-------------------------------|
D |-------------------------------|-------------------------------|
A |--------7---------------5---7--|--------7---------------5---7--|
E |0-----------7-------7----------|0-----------7-------7----------|

(verso)
    E7                              B7
E |------- ------- ------- -------|------- ------- ------- -------|
B |-------------------------------|-------------------------------|
G |-------------------------------|-------------------------------|
D |-------------------------------|--------9---------------7---9--|
A |--------7---------------5---7--|------------9-------9----------|
E |0-----------7-------7----------|7------------------------------|

    E7
E |------- ------- ------- -------|------- ------- ------- -------|
B |-------------------------------|-------------------------------|
G |-------------------------------|-------------------------------|
D |-------------------------------|-------------------------------|
A |--------7---------------5---7--|--------7---------------5---7--|
E |0-----------7-------7----------|0-----------7-------7----------|

                                    B7
E |------- ------- ------- -------|------- ------- ------- -------|
B |-------------------------------|-------------------------------|
G |-------------------------------|-------------------------------|
D |-------------------------------|--------9---------------7---9--|
A |--------7---------------5---7--|------------9-------9----------|
E |0-----------7-------7----------|7------------------------------|

    E7
E |------- ------- ------- -------|------- ------- ------- -------|
B |-------------------------------|-------------------------------|
G |-------------------------------|-------------------------------|
D |-------------------------------|-------------------------------|
A |--------7---------------5---7--|--------7---------------5---7--|
E |0-----------7-------7----------|0-----------7-------7----------|

    A7                              B7
E |------- ------- ------- -------|------- ------- ------- -------|
B |-------------------------------|-------------------------------|
G |-------------------------------|-------------------------------|
D |--------7---------------5---7--|--------9---------------7---9--|
A |------------7-------7----------|------------9-------9----------|
E |5------------------------------|7------------------------------|

    A7                              B7
E |------- ------- ------- -------|------- ------- ------- -------|
B |-------------------------------|-------------------------------|
G |-------------------------------|-------------------------------|
D |--------7---------------5---7--|--------9---------------7---9--|
A |------------7-------7----------|------------9-------9----------|
E |5------------------------------|7------------------------------|

    E7                              B7
E |------- ------- ------- -------|------- ------- ------- -------|
B |-------------------------------|-------------------------------|
G |-------------------------------|-------------------------------|
D |-------------------------------|--------9---------------7---9--|
A |--------7---------------5---7--|------------9-------9----------|
E |0-----------7-------7----------|7------------------------------|

    E7
E |------- ------- ------- -------|------- ------- ------- -------|
B |-------------------------------|-------------------------------|
G |-------------------------------|-------------------------------|
D |-------------------------------|-------------------------------|
A |--------7---------------5---7--|--------7---------------5---7--|
E |0-----------7-------7----------|0-----------7-------7----------|
  me                                                          I

   E7                          B7                     E7
I don't think it's funny when you ask for money and things
                                  B7                         E7
Especially when you're standing there, wearing diamonds and rings (wo-oh)
 A7                        B7           A7                   B7
You think I'm soft in the head, well, try someone softer instead pretty thing
E7                       H7                       E7
It's not so funny, when you know what money can bring

(ponte)

A5                       E5   A5        E5     B5        E5
 You'd better leave me alone, I don't need a thing from you
A5                            E5   A5      E5     B5        E5
 You'd better take yourself home, go and count a ring or two

(verso)

(solo)
    E7
E |------- ------- ------- -------|------- ------- ------- -------|
B |-------------------------------|-------------------------------|
G |-------------------------------|-------------------------------|
D |-------------------------------|--------9-------9---\---7------|
A |--------7---------------5---7--|-------------------------------|
E |0-----------7-------7----------|-------------------------------|

    E5
E |------- ------- ------- -------|------- ------- ------- -------|
B |-------------------------------|-------------------------------|
G |-------------------------------|-------------------------------|
D |-------------------------------|-------------------------------|
A |10--\---7-------7----5---------|----5--------------------------|
E |-------------------------------|7-----------7---3----0--------5h

E |------- ------- ------- -------|------- ------- ------- -------|
B |-------------------------------|-------------------------------|
G |-------------------------------|-------------------------------|
D |-------------------------------|--------------------5----------|
A |----5---------------5----------|7-------7-------7-----------7--|
E |7-------------5h7--------------|0-------0-------0--------------|

    A5
E |------- ------- ------- -------|------- ------- ------- -------|
B |-------------------------------|-------------------------------|
G |-------------------------------|-------------------------------|
D |7-------7-------7-------5------|7-------7-------7-------5------|
A |----------------------------7--|----------------------------7--|
E |-------------------------------|-------------------------------|

    E5
E |------- ------- ------- -------|------- ------- ------- -------|
B |-------------------------------|-------------------------------|
G |-------------------------------|----7--------------------------|
D |----------------5----7-----7---|7/9-------------7-\-5----------|
A |--------7----------------------|-------------------------------|
E |-------------------------------|-------------------------------|

    B5                              A5
E |----12- ----10\ 9------ 7------|------- ------- ------- -------|
B |-------------------------------|8b9-----8b9-----8--------------|
G |-------------------------------|---------------------9-----9---|
D |-------------------------------|-------------------------------|
A |-------------------------------|-------------------------------|
E |-------------------------------|-------------------------------|

    E5
E |------- ------- ------- -------|------- ------- ------- -------|
B |-------------------------------|-------------------------------|
G |-------------------------------|-------------------------------|
D |-------------------------------|-------------------------------|
A |----------------5-------5---7--|----7-------5------------------|
E |----0-------7------------------|----------------7---3b4--------|

(ponte)

    A5
E |------- ------- ------- -------|
B |-------------------------------|
G |-------------------------------|
D |-------------------------------|
A |-------------------------------|
E |0------------------------------|

Clipes

Cifra Club Pro

Aproveite o Cifra Club com benefícios exclusivos e sem anúncios
7 dias grátis
Cifra Club Pro
Aproveite o Cifra Club com benefícios exclusivos e sem anúncios
7 dias grátis