busca

I'm Gonna Sit Right Down And Cry (Over You)

The Beatles

(INTRO)

  t=193
G|---------------------------------|---------------------------------|
D|---------------------------------|---------------------------------|
A|-5-------------------------------|---------------------------------|
E|---------------------------------|---------------------------------|

G|---------------------------------|---------------------------------|
D|---------------------------------|---------------------------------|
A|-3-------------------------------|---------------------------------|
E|---------------------------------|---------------------------------|

G|---------------------------------|---------------------------------|
D|-5-----------5-----------5-------|-----------------5---------------|
A|-----------------5---------------|-3-----------3-----------3-------|
E|---------------------------------|---------------------------------|

G|---------------------------------|---------------------------------|
D|-5-----------5-----------5-------|---------------------------------|
A|-----------------5---------------|-5-------------------------------|
E|---------------------------------|---------------------------------|

(VERSE)

G|---------------------------------|---------------------------------|
D|-5-----------5-----------5-------|-----------------5---------------|
A|-----------------5---------------|-3-----------3-----------3-------|
E|---------------------------------|---------------------------------|

G|---------------------------------|---------------------------------|
D|-5-----------5-----------5-------|-----------------5---------------|
A|-----------------5---------------|-3-----------3-----------3-------|
E|---------------------------------|---------------------------------|

G|---------------------------------|---------------------------------|
D|-5-----------5-----------5-------|-----------------5---------------|
A|-----------------5---------------|-3-----------3-----------3-------|
E|---------------------------------|---------------------------------|

G|---------------------------------|---------------------------------|
D|-----------------7-------7-------|-----------------7---------------|
A|-5-----------5-------------------|-5-----------------------5-------|
E|---------------------------------|---------------------------------|

(CHORUS)

G|---------------------------------|---------------------------------|
D|-5-----------5-------------------|-5-----------5-------------------|
A|-----------------5---------------|---------------------------------|
E|---------------------------------|---------------------------------|

G|---------------------------------|---------------------------------|
D|-----------------5-------5-------|---------------------------------|
A|-3-----------3-------------------|-3-----------3-------------------|
E|---------------------------------|---------------------------------|

G|---------------------------------|---------------------------------|
D|-5-----------5-----------5-------|-----------------7---------------|
A|-----------------5---------------|-5-----------5-----------5-------|
E|---------------------------------|---------------------------------|

G|---------------------------------|---------------------------------|
D|-5-----------5-----------5-------|---------------------------------|
A|-----------------5---------------|-5-------------------------------|
E|---------------------------------|---------------------------------|

(VERSE)

G|---------------------------------|---------------------------------|
D|-5-----------5-----------5-------|-----------------5---------------|
A|-----------------5---------------|-3-----------------------3-------|
E|---------------------------------|---------------------------------|

G|---------------------------------|---------------------------------|
D|-5-----------5-----------5-------|-----------------5---------------|
A|-----------------5---------------|-3-----------3-----------3-------|
E|---------------------------------|---------------------------------|

G|---------------------------------|---------------------------------|
D|-5-----------5-----------5-------|-----------------5---------------|
A|-----------------5---------------|-3-----------3-----------3-------|
E|---------------------------------|---------------------------------|

G|---------------------------------|---------------------------------|
D|-----------------7-------7-------|-----------------7---------------|
A|-5-----------5-------------------|-5-----------5-----------5-------|
E|---------------------------------|---------------------------------|

(CHORUS)

G|---------------------------------|---------------------------------|
D|-5-----------5-------------------|-5-----------5-------------------|
A|-----------------5---------------|---------------------------------|
E|---------------------------------|---------------------------------|

G|---------------------------------|---------------------------------|
D|-----------------5-------5-------|---------------------------------|
A|-3-----------3-------------------|-3-----------3-------------------|
E|---------------------------------|---------------------------------|

G|---------------------------------|---------------------------------|
D|-5-----------5-----------5-------|-----------------7---------------|
A|-----------------5---------------|-5-----------5-----------5-------|
E|---------------------------------|---------------------------------|

G|---------------------------------|---------------------------------|
D|-5-----------5-----------5-------|---------------------------------|
A|-----------------5---------------|-5-------5-------5-------5-------|
E|---------------------------------|---------------------------------|

(BRIDGE)

G|---------------------------------|---------------------------------|
D|-----------------5-------5-------|-----------------5---------------|
A|-3-----------3-------------------|-3-----------3-----------3-------|
E|---------------------------------|---------------------------------|

G|---------------------------------|---------------------------------|
D|-5-----------5-------------------|-5-----------5-----------5-------|
A|-----------------5-----------5---|-----------------5---------------|
E|---------------------------------|---------------------------------|

G|---------------------------------|---------------------------------|
D|-----------------5-------5-------|-----------------5---------------|
A|-3-----------3-------------------|-3-----------3-----------3-------|
E|---------------------------------|---------------------------------|

G|---------------------------------|---------------------------------|
D|---------------------------------|---------------------------------|
A|-5-----------5---5---------------|-5-----------5---5---------------|
E|---------------------------------|---------------------------------|

(CHORUS)

G|---------------------------------|---------------------------------|
D|-5-----------5-------------------|-5-----------5-------------------|
A|-----------------5---------------|---------------------------------|
E|---------------------------------|---------------------------------|

G|---------------------------------|---------------------------------|
D|-----------------5---------------|---------------------------------|
A|-3-----------3-------------------|-3-----------3-------------------|
E|---------------------------------|---------------------------------|

G|---------------------------------|---------------------------------|
D|-5-----------5-----------5-------|-----------------7---------------|
A|-----------------5---------------|-5-----------------------5-------|
E|---------------------------------|---------------------------------|

G|---------------------------------|---------------------------------|
D|-5-----------5-----------5-------|---------------------------------|
A|-----------------5---------------|-5-------5-------5-------5-------|
E|---------------------------------|---------------------------------|

(GUITAR SOLO)

G|---------------------------------|---------------------------------|
D|-----------------5-----------5---|-----------------5---------------|
A|-3-----------3-------------------|-3-----------3-----------3-------|
E|---------------------------------|---------------------------------|

G|---------------------------------|-------------5-------------------|
D|-----------------5-------5-------|-----------------5-------5-------|
A|-3-----------3-------------------|-3-------------------------------|
E|---------------------------------|---------------------------------|

G|---------------------------------|---------------------------------|
D|-5-----------5-------------------|-5-----------5-----------3-------|
A|-----------------5-----------5---|-----------------5---------------|
E|---------------------------------|---------------------------------|

G|---------------------------------|---------------------------------|
D|-5-----------5-------------------|-5-----------5-------------------|
A|-----------------5-----------5---|-----------------5---------------|
E|---------------------------------|---------------------------------|

G|---------------------------------|---------------------------------|
D|---------------------------------|---------------------------------|
A|-5-------------------------------|---------------------------------|
E|---------------------------------|---------------------------------|

G|---------------------------------|---------------------------------|
D|---------------------------------|---------------------------------|
A|-3-------------------------------|---------------------------------|
E|---------------------------------|---------------------------------|

G|---------------------------------|---------------------------------|
D|-5-----------5-----------5-------|-----------------5---------------|
A|-----------------5---------------|-3-----------3-----------3-------|
E|---------------------------------|---------------------------------|

G|---------------------------------|---------------------------------|
D|-5-----------5-----------5-------|---------------------------------|
A|-----------------5---------------|-5-------5-------5-------5-------|
E|---------------------------------|---------------------------------|

(BRIDGE)

G|---------------------------------|---------------------------------|
D|-----------------5-------5-------|-----------------5---------------|
A|-3-----------3-------------------|-3-----------------------3-------|
E|---------------------------------|---------------------------------|

G|---------------------------------|---------------------------------|
D|-5-----------5-------------------|-5-----------5-----------5-------|
A|-----------------5-----------5---|-----------------5---------------|
E|---------------------------------|---------------------------------|

G|---------------------------------|---------------------------------|
D|-----------------5-------5-------|-----------------5---------------|
A|-3-----------3-------------------|-3-----------3-----------3-------|
E|---------------------------------|---------------------------------|

G|---------------------------------|---------------------------------|
D|---------------------------------|---------------------------------|
A|-5-----------5---5---------------|-5-----------5---5---------------|
E|---------------------------------|---------------------------------|

(CHORUS)

G|---------------------------------|---------------------------------|
D|-5-----------5-------------------|-5-----------5-------------------|
A|-----------------5---------------|---------------------------------|
E|---------------------------------|---------------------------------|

G|---------------------------------|---------------------------------|
D|-----------------5-------5-------|---------------------------------|
A|-3-----------3-------------------|-3-----------3-------------------|
E|---------------------------------|---------------------------------|

G|---------------------------------|---------------------------------|
D|-5-----------5-----------5-------|-----------------7---------------|
A|-----------------5---------------|-5-----------------------5-------|
E|---------------------------------|---------------------------------|

G|---------------------------------|---------------------------------|
D|-5-----------5-----------5-------|---------------------------------|
A|-----------------5---------------|-5-------5-------5-------5-------|
E|---------------------------------|---------------------------------|

(OUTRO)

G|---------------------------------|---------------------------------|
D|-5-----------5-----------5-------|-----------------7---------------|
A|-----------------5---------------|-5-----------5-----------5-------|
E|---------------------------------|---------------------------------|

G|---------------------------------|---------------------------------|
D|-5-----------5-----------5-------|---------------------------------|
A|-----------------5---------------|-5-------5-------5-------5-------|
E|---------------------------------|---------------------------------|

G|---------------------------------|---------------------------------|
D|-5-----------5-----------5-------|-----------------7---------------|
A|-----------------5---------------|-5-----------5-----------5-------|
E|---------------------------------|---------------------------------|

G|---------------------------------|---------------------------------|
D|-5-----------5-----------5-------|---------------------------------|
A|-----------------5---------------|-3-------3-------3-------3-------|
E|---------------------------------|---------------------------------|

G|---------------------------------|---------------------------------|
D|---------------------------------|-5-----------5-------------------|
A|-5-------5-------5-------5-------|-----2---5-----------------------|
E|---------------------------------|---------------------------------|

Clipes