In My Life

The Beatles

A7
12
X02020
C
123
X32010
Cm
234
X35543
D
123
XX0232
D5/F#
123
2X023X
D7
123
XX0212
Em
12
022000
F
234
133211
G
123
320003
Tom: G
[Intro] G  D  G  D

#1t1#   G             D
#1t2#E|---5----------4---------------------------|
B|-2----2h3--5--5----5-----5----------------|
G|-2------------4----4-----4----------------|
D|-2------------2--2---2-2---2--------------|
A|------------------------------------------|
E|-5----5-----------------------------------|#/1t2##/1t1#

[Primeira Parte]

#2t1#   G         D5/F#   Em      F5-(9/13)
#2t2#E|------------------------------------------|
B|-----5--------5------2--x--2---2----------|
G|-----2--------4------2--x--2---2----------|
D|---2---2----2---2----4--x--2-2---2--------|
A|------------------------------------------|
E|-5--------4--------2-------3--------------|#/2t2##/2t1#

#3t1#   C        Cm        G
#3t2#E|------------------------------------------|
B|-----3---------6----------5---------------|
G|-----2---------7--------2---2-------------|
D|---4---4----7----7----2-------------------|
A|-5--------5-------------------------------|
E|--------------------5---------------------|#/3t2##/3t1#

#4t1#   G         D5/F#   Em      F5-(9/13)
#4t2#E|------------------------------------------|
B|-----5--------5------2--x--2---2----------|
G|-----2--------4------2--x--2---2----------|
D|---2---2----2---2----4--x--2-2---2--------|
A|------------------------------------------|
E|-5--------4--------2-------3--------------|#/4t2##/4t1#

#5t1#   C        Cm        G
#5t2#E|-------------------------------5--5--5----|
B|-----3---------6-----------5---5--5--5----|
G|-----2---------7--------2--2---2--2--2----|
D|---4---4----7----7----2----2---2--2--2----|
A|-5--------5----------------4---4--4--4----|
E|--------------------5------5---5--5--5----|
                              ↑   ↑  ↓  ↑#/5t2##/5t1#

            G    D5/F#   Em    F5-(9/13)
There are places I'll remember
        C    Cm        G
All my li__ife though some have changed
              D5/F#   Em    F5-(9/13)
Some forever not for better
           C  Cm       G
Some have go__one and some remain
            Em              C
All these places had their moments
      F                     G
With lovers and friends I still can recall
          Em                A7
Some are dead and some are living
    C  Cm              G
In my     life I've loved them all

( G  D )

#6t1#   G            D
#6t2#E|---5----------4---------------------------|
B|-2----2h3--5--5----5-----5----------------|
G|-2------------4----4-----4----------------|
D|-2------------2--2---2-2---2--------------|
A|------------------------------------------|
E|-5----5-----------------------------------|#/6t2##/6t1#

       G           D5/F#      Em    F5-(9/13)
But of all these friends and lovers
          C Cm      G
There is no one compares with you
                    D5/F#         Em   F5-(9/13)
And these memories lose their meaning
         C       Cm      G
When I think of love as something new
           Em                    C
Though I know I'll never lose affection
     F                      G
For people and things that went before
    Em                              A7
I know I'll often stop and think about them
    C  Cm            G
In my     life I'll love you more

( G  D )

#7t1#   G            D
#7t2#E|---5----------4---------------------------|
B|-2----2h3--5--5----5-----5----------------|
G|-2------------4----4-----4----------------|
D|-2------------2--2---2-2---2--------------|
A|------------------------------------------|
E|-5----5-----------------------------------|#/7t2##/7t1#

    C  Cm                    G
In my    life I'll love you more

#8t1#   G            D  D7      G
#8t2#E|---5----------4--4-2-4---5----------------|
B|-2----2h3--5--5--3-------5----------------|
G|-2------------4--4-------2----------------|
D|-2------------2---------------------------|
A|------------------------------------------|
E|-5----5------------------5----------------|#/8t2##/8t1#
Composição: Colaboração e revisão: Thiago AlmeidaGleidson NascimentoBastian AlisteRodrigo Pavanie mais 5
Videoaula In My Life (aula de violão completa)